» » »

Fill In The Blanks Bass tabs (ver.1)

Artists:  A B C D E F G H I J K L M N O P Q R S T U V W X Y Z # 

Fill In The Blanks Bass tabs (ver.1)

Ignite
Rating:
0/5 (0 votes)

Hard to play? Try these video lessons and learn fast.
                Intro/Verse: (6x)
G|-----------------------------------------------------------|
D|-----------------------------------------------------------|
A|---------------4--5-5-5-5-5-5--------------7--9-9-9-9-9-9--|
E|--2-2-2-2-2-2-----------------7-7-7-7-7-7------------------|

Chorus: 
G|-----------------------------------------------------------|
D|-----------------------------------------------------------|
A|-------------5--------------5-------------5----------------|
E|----2-2-2--5-------2-2-2--5------2-2-2--5----5-5-5--7-7-7--|

G|----------------------------------------------------------------|
D|----------------------------------------------------------------|
A|-------------5--------------5-------------5---9-9-9-9-----------|
E|----2-2-2--5-------2-2-2--5------2-2-2--5-----------------------|

Intro/Verse: (4x)
G|-----------------------------------------------------------|
D|-----------------------------------------------------------|
A|---------------4--5-5-5-5-5-5--------------7--9-9-9-9-9-9--|
E|--2-2-2-2-2-2-----------------7-7-7-7-7-7------------------|

Chorus: (2x)
G|-----------------------------------------------------------|
D|-----------------------------------------------------------|
A|-------------5--------------5-------------5----------------|
E|----2-2-2--5-------2-2-2--5------2-2-2--5----5-5-5--7-7-7--|

G|----------------------------------------------------------------|
D|----------------------------------------------------------------|
A|-------------5--------------5-------------5---9-9-9-9-9-9-9-9---|
E|----2-2-2--5-------2-2-2--5------2-2-2--5-----------------------|

Bridge: (4x)
G|------------------------------------------|
D|------------------------------------------|
A|-9999999999999999--55555555--77777777-----|
E|------------------------------------------|

(4x)
G|---------------------------------------|
D|---------------------------------------|
A|------------------55555555--77777777---|
E|-22-2-2--22-2-2------------------------|

Intro/Verse: (2x)
G|-----------------------------------------------------------|
D|-----------------------------------------------------------|
A|---------------4--5-5-5-5-5-5--------------7--9-9-9-9-9-9--|
E|--2-2-2-2-2-2-----------------7-7-7-7-7-7------------------|

Ending: (2x)
G|-----------------------------------------------------------|
D|-----------------------------------------------------------|
A|-------------5--------------5-------------5----------------|
E|----2-2-2--5-------2-2-2--5------2-2-2--5----5-5-5--7-7-7--|

G|----------------------------------------------------------------|
D|----------------------------------------------------------------|
A|-------------5--------------5-------------5---9-----------------|
E|----2-2-2--5-------2-2-2--5------2-2-2--5-----------------------|
            
Hard to play? Try these video lessons and learn fast. | Correct




comments powered by Disqus
↑ Back to top | Tablatures and chords are parodies/interpretations of the original songs. You may use it for private study, scholarship, research or language learning purposes only