» » »

Ignite, Banned In Dc Bass tabs (ver.1)

Artists:  A B C D E F G H I J K L M N O P Q R S T U V W X Y Z # 

Banned In Dc Bass tabs (ver.1)

Ignite Tabs
 Rating:
4/5 (4 votes)
Banned In Dc lessons Tabs too difficult? Try these video lessons and learn fast
                Ignite - Banned in DC

part 1
g-------------------  
d-------------------  4x
a-33-3-55-6-88-6-88-
e-------------------

part 2
g-------------------
d-55-5-------------- 2x
a------55-6-88-6-88-
e-------------------

part 3
g--------------
d-33-3-33-3-33- 2x
a--------------
e--------------

part 4
g-------------------
d-33-3-55-6-88-6-88- 4x
a-------------------
e-------------------

part 5
g-5-4-------------
d-----5-3-33-3-33- 2x
a-----------------
e-----------------

part 3 1x

part 6
g-------------------------------------
d------------------------------------- 11x 
a-44444444------6666------------------
e----------7777------6666666666666666-

then
g------------------------------
d------------------------------
a-44444444------6666-----------
e----------7777------6-6-6~~-6-

thats all
            
Submit corrections

comments powered by Disqus
↑ Back to top | Ignite Bass for Banned In Dc. Lyrics for acoustic guitar and electric guitar. Tablatures and chords are parodies/interpretations of the original songs. You may use it for private study, scholarship, research or language learning purposes only