» » »

Ignite, Automatic Tabs (ver.1)

Artists:  A B C D E F G H I J K L M N O P Q R S T U V W X Y Z # 

Automatic Tabs (ver.1)

Ignite Tabs
 Rating:
4/5 (4 votes)
Automatic lessons Tabs too difficult? Try these video lessons and learn fast
1
                -------------------------------------------------------------------------------
-------------------------------------------------------------------------------

   Automatic - Scarred For Life CD

   Intro
E|---------------------------------------------------------------------------|
B|----------------4-----------------------------------4------8-8-6-----------|
C|--5-5-5--5--5-5-----8-8-8------------5-5-5--5--5-5------8------------------|
D|--5-5-5-----5-5-----8-8-8--8-8-8-8---5-5-5-----5-5------8---------8-8-8-8--|
A|--3-3-3-----3-3-----6-6-6--8-8-8-8---3-3-3-----3-3------6---------8-8-8-8--|
E|---------------------------6-6-6-6--------------------------------6-6-6-6--|

E|---------------------------------------------------------------------------|
B|----------------4-----------------------------------4----------------------|
C|--5-5-5--5--5-5-----8-8-8------------5-5-5--5--5-5------10-10-10-10-10-----|
D|--5-5-5-----5-5-----8-8-8--8-8-8-8---5-5-5-----5-5------10-10-10-10-10--8--|
A|--3-3-3-----3-3-----6-6-6--8-8-8-8---3-3-3-----3-3------8--8--8--8--8---8--|
E|---------------------------6-6-6-6--------------------------------------6--|

E|---------------------------     -------------------------------------------|
B|---------------------------     -------------------------------------------|
C|--5-5-5-5-5-------8-8-8----\    ---5---------------------------------------|
D|--5-5-5-5-5--8-8--8-8-8---- |x4 ---5---------------------------------------|
A|--3-3-3-3-3--8-8--6-6-6----/    ---3---------------------------------------|
E|-------------6-6-----------     -------------------------------------------|

E|------------------------------------------------------------------------------|
B|--6-6-6--6--------------------------------------------------------------------|
C|------------5-5-5--8-7-5---------------------------------------------------\--|
D|--------------------------8--5-5---3-3----------------------------------------|x3
A|------------------------------------------------------------------------------|
E|------------------------------------------------------------------------------|

   Verse
E|-------------------------     ---------------------------------------------|
B|-------------------------     ---------------------------------------------|
C|--5-5-x-x-5-5-------8-8--\    ---5-----5-5-5-5-5-5-5-5-5-5-5-5-5-5---------|
D|--5-5-x-x-5-5--8-8--8-8-- |x4 ---5-----5-5-5-5-5-5-5-5-5-5-5-5-5-5---------|
A|--3-3-x-x-3-3--8-8--6-6--/    ---3-----3-3-3-3-3-3-3-3-3-3-3-3-3-3---------|
E|---------------6-6-------     ---------------------------------------------|

   Verse                             Chorus
E|----------------------------     ---------------------------------------------|
B|----------------------------     ---------------------------------------------|
C|--5-5-5-5-------------------\    --5-5-5-5---------------------------------\--|
D|--5-5-5-5--3--6-6-6--8-8-8-- |x4 --5-5-5-5--3--6-6-6--8-8-8-------------------|x4
A|--3-3-3-3--3--6-6-6--8-8-8--/    --3-3-3-3--3--6-6-6--8-8-8-------------------|
E|-----------1--4-4-4--6-6-6--     -----------1--4-4-4--6-6-6-------------------|

   Verse                             Chorus
E|----------------------------     ---------------------------------------------|
B|----------------------------     ---------------------------------------------|
C|--5-5-5-5-------------------\    --5-5-5-5---------------------------------\--|
D|--5-5-5-5--3--6-6-6--8-8-8-- |x4 --5-5-5-5--3--6-6-6--8-8-8-------------------|x2
A|--3-3-3-3--3--6-6-6--8-8-8--/    --3-3-3-3--3--6-6-6--8-8-8-------------------|
E|-----------1--4-4-4--6-6-6--     -----------1--4-4-4--6-6-6-------------------|

E|------------------------------------------------------------------------------|
B|------------------------------------------------------------------------------|
C|--5-5-5-5------------8-8-8-------------------------------------------------\--|
D|--5-5-5-5--3--6-6-6--8-8-8----------------------------------------------------|x2
A|--3-3-3-3--3--6-6-6--6-6-6----------------------------------------------------|
E|-----------1--4-4-4-----------------------------------------------------------|

   Bridge
E|------------------------------------------------------------------------------|
B|------------------------------------------------------------------------------|
C|-------------------------------------------------8---------5---------------\--|
D|--5-5-5--3-------5-----6-----5---3-5--6-6-6-6--8-8-8--3-6--5------------------|x2
A|--3-3-3-----3-3----3-3---3-3---3------6-6-6-6--8-6-8--3-6--3------------------|
E|--------------------------------------4-4-4-4--6---6--1-4---------------------|

                                     Verse
E|---------------------------------------------------------------------------|
B|---------------------------------------------------------------------------|
C|--5---------------5---------------5-5-5-5-5---------8-8-8-8----------------|
D|--5---------------5---------------5-5-5-5-5--8-8-8--8-8-8-8----------------|
A|--3---6--8--3-----3---6--8--3-----3-3-3-3-3--8-8-8--6-6-6-6----------------|
E|---------------------------------------------6-6-6-------------------------|

   Verse
E|---------------------------------------------------------------------------|
B|---------------------------------------------------------------------------|
C|---------------------------------------------------------------------------|
D|------12--10-10------------------------10-12-----10------------------------|
A|--10----------------10-8----------10----------13------13--10---------------|
E|-------------------------11-10---------------------------------------------|

   Chorus (Outro)
E|--------------------------     --------------------------------------------||
B|--------------------------     --------------------------------------------||
C|--5-5-5-------------------\    ---5----------------------------------------||
D|--5-5-5--3--6-6-6--8-8-8-- |x8 ---5----------------------------------------||
A|--3-3-3--3--6-6-6--8-8-8--/    ---3----------------------------------------||
E|---------1--4-4-4--6-6-6--     --------------------------------------------||
            
Submit corrections

comments powered by Disqus
↑ Back to top | Ignite Tabs for Automatic. Lyrics for acoustic guitar and electric guitar. 1 Tablatures and chords are parodies/interpretations of the original songs. You may use it for private study, scholarship, research or language learning purposes only