» » »

Ignite, Aggression Tabs (ver.1)

Artists:  A B C D E F G H I J K L M N O P Q R S T U V W X Y Z # 

Aggression Tabs (ver.1)

Ignite Tabs
Rating:
4/5 (1 vote)
Aggression lessons Tabs too difficult? Try these video lessons and learn fast
                -------------------------------------------------------------------------------
-------------------------------------------------------------------------------

   Intro
E|--------------------------------------------------------------------------|
B|--------------------------------------------------------------------------|
G|-----------------------------------------------------------------------\--|
D|--------------------------------------------------------------------------|x2
A|-------7------------7-------------5---------------------------------------|
E|--5-5-----8----8-8-----8-----3-3-----5-5-5-5------------------------------|

E|-----------------------------------------------------------------------|
B|-----------------------------------------------------------------------|
G|--14-14-14-14-14-14-14-14-14-14-14-14----------------------------------|
D|--14-14-14-14-14-14-14-14-14-14-14-14----------------------------------|
A|--12-12-12-12-12-12-12-12-12-12-12-12----------------------------------|
E|-----------------------------------------------------------------------|

   Verse
E|--------------------------------------------------------------------------|
B|--------------------------------------------------------------------------|
G|-------------------------10--9----------10--9--------------------------\--|
D|--7-7-7-7-7-7--10-10-10--10--9---5-5-5--10--9--7-7-7-7-7------------------|x2
A|--7-7-7-7-7-7--10-10-10--8---7---5-5-5--8---7--7-7-7-7-7------------------|
E|--5-5-5-5-5-5--8--8--8-----------3-3-3---------5-5-5-5-5------------------|

E|-----------------------------------------------------------------------|
B|-----------------------------------------------------------------------|
G|-------------------------------7-7-7--------12--14-14-14-14------------|
D|--7-7-7--10-9--10-10-10--10-9--7-7-7--10-9--12--14-14-14-14------------|
A|--7-7-7--------10-10-10--------5-5-5--------10--12-12-12-12------------|
E|--5-5-5--------8--8--8-------------------------------------------------|

E|-----------------------------------------------------------------------|
B|-----------------------------------------------------------------------|
G|-------------------------------7-7-7-----------------------------------|
D|--7-7-7--10-9--10-10-10--10-9--7-7-7--10-9--7-7--7-7-------------------|
A|--7-7-7--------10-10-10--------5-5-5--------7-7--7-7-------------------|
E|--5-5-5--------8--8--8----------------------5-5--5-5-------------------|

   Chorus
E|-----------------------------------------------------------------------|
B|-----------------------------------------------------------------------|
G|------------------------10-10-10-10-10---------------------------------|
D|--3-3-3-3-3--7-7-7-7-7--10-10-10-10-10--7-7-7-7-7--3-3-3-3-3--7-7-7-7--|
A|--3-3-3-3-3--7-7-7-7-7--8--8--8--8--8---7-7-7-7-7--3-3-3-3-3--7-7-7-7--|
E|--1-1-1-1-1--5-5-5-5-5------------------5-5-5-5-5--1-1-1-1-1--5-5-5-5--|

E|-----------------------------------------------------------------------|
B|-----------------------------------------------------------------------|
G|--10-10-10-10-10-10-10---12-12-12-12--14-14-14-14----------------------|
D|--10-10-10-10-10-10-10---12-12-12-12--14-14-14-14----------------------|
A|--8--8--8--8--8--8--8----10-10-10-10--12-12-12-12----------------------|
E|-----------------------------------------------------------------------|

   Verse  ->

   Chorus ->

E|-----------------------------------------------------------------------|
B|-----------------------------------------------------------------------|
G|----------------12-12-12-12-12-----------------------------------------|
D|--7---5-5--7----12-12-12-12-12-----------------------------------------|
A|--7---5-5--7----10-10-10-10-10---7-8-7---8-3--5-5-5--8-8-8-------------|
E|--5---3-3--5-----------------------------------------------------------|

E|-----------------------------------------------------------------------|
B|-----------------------------------------------------------------------|
G|-----------------------------------------------------------------------|
D|-----------------------------------------------------------------------|
A|--7-8-7---8-3--5-5-5--12-10-8-----7-8-7---8-3--5-5-5--12-10-8----------|
E|-----------------------------------------------------------------------|

E|-----------------------------------------------------------------------|
B|-----------------------------------------------------------------------|
G|-----------------14-14-14-14-14-14-14-14-------------------------------|
D|-----------------14-14-14-14-14-14-14-14-------------------------------|
A|--7-8-7---8-3----12-12-12-12-12-12-12-12-------------------------------|
E|-----------------------------------------------------------------------|

   Outro
E|-----------------------------------------------------------------------|
B|-----------------------------------------------------------------------|
G|------------------------10-10-10-10-10---------------------------------|
D|--3-3-3-3-3--7-7-7-7-7--10-10-10-10-10--7-7-7-7-7--3-3-3-3-3--7-7-7-7--|
A|--3-3-3-3-3--7-7-7-7-7--8--8--8--8--8---7-7-7-7-7--3-3-3-3-3--7-7-7-7--|
E|--1-1-1-1-1--5-5-5-5-5------------------5-5-5-5-5--1-1-1-1-1--5-5-5-5--|

E|-----------------------------------------------------------------------||
B|-----------------------------------------------------------------------||
G|--10-10-10-10-10-10-10---12-12-12-12----10---14------------------------||
D|--10-10-10-10-10-10-10---12-12-12-12----10---14------------------------||
A|--8--8--8--8--8--8--8----10-10-10-10----8----12------------------------||
E|-----------------------------------------------------------------------||
            
Submit corrections

comments powered by Disqus
↑ Back to top | Ignite Tabs for Aggression. Lyrics for acoustic guitar and electric guitar. Tablatures and chords are parodies/interpretations of the original songs. You may use it for private study, scholarship, research or language learning purposes only