» » »

Violent And Young Bass tabs (ver.1)

Artists:  A B C D E F G H I J K L M N O P Q R S T U V W X Y Z # 

Violent And Young Bass tabs (ver.1)

Iglu And Hartly
Rating:
0/5 (0 votes)

Hard to play? Try these video lessons and learn fast.
                ----------------------------------------------------------------------------
                    Iglu & Hartly - Violent and young
----------------------------------------------------------------------------

Tuning EADG

Verse 3x
||---------------------------------------|------------------------------------|
D|-----------------------7------------75-|--------------7-----7------------75-|
A|---555558588888888---------------------|-5555585888888----------------------|
E|------------------55555--5---3333333---|---------------55555--5---3333333---|

Chorus
G|------5h7h5----------------------|---5h7h5---------------------------------|
D|-----------7-------7---7-----75--|--------7-------7---7----75--------------|
A|-3455-------88888-7-7------------|-55------88888-7-7-----------------------|
E|---------------------55-3333-----|------------------55-3333----------------|
            
Hard to play? Try these video lessons and learn fast. | Correct




comments powered by Disqus
↑ Back to top | Tablatures and chords are parodies/interpretations of the original songs. You may use it for private study, scholarship, research or language learning purposes only