» » »

Passenger Bass tabs (ver.2)

Artists:  A B C D E F G H I J K L M N O P Q R S T U V W X Y Z # 

Passenger Bass tabs (ver.2)

Iggy Pop
Rating:
5/5 (2 votes)

Hard to play? Try these video lessons and learn fast.
                
The Passenger Bassline by Iggy Pop

Standard Tuning: E A D G

    Bass

It alternates between the two for most of the song

Main Riff
||----------------------------||
||----------------------------||
||------8-8--------7----------||
||--5-5-----8-8--78-87--------||

Alternate Riff
||----------------------------||
||--------5-------------------||
||------8----------7----------||
||--5-5-----8-8--78-87--------||
            
Hard to play? Try these video lessons and learn fast. | Correct




comments powered by Disqus
↑ Back to top | Tablatures and chords are parodies/interpretations of the original songs. You may use it for private study, scholarship, research or language learning purposes only