» » »

Iggy Pop, Supermarket Tabs (ver.1)

Artists:  A B C D E F G H I J K L M N O P Q R S T U V W X Y Z # 

Supermarket Tabs (ver.1)

Iggy Pop Tabs
Rating:
0/5 (0 votes)
Supermarket lessons Tabs too difficult? Try these video lessons and learn fast
                SUPERMARKET
(Iggy Pop ft. Green Day)

Intro:

   Guitar 1:
e |-----------------|-----------------|-----------------|-----------------|
B |-----------------|-----------------|-----------------|-----------------|
G |-----------------|-----------------|-----------------|-----------------|
D |---------------0-|-----0---0---0---|-2---2---2-------|-----------------|
A |-0---0---0-2-4---|-----------------|---------------O-|-----0---0---0---|
E |-----------------|-----------------|-----------2-4---|-----------------|
   (played two times)

   Guitar 2:
e |-----------------|-----------------|-----------------|-----------------|
B |-----------------|-----------------|-----------------|-----------------|
G |-----------------|-----------------|-----------------|-----------------|
D |---------------7-|-----7-7-7-7-7-7-|-9-9-9-9-9-9-9---|-----------------|
A |-7-7-7-7-7-7-7-5-|-----5-5-5-5-5-5-|-7-7-7-7-7-7-7-7-|-7-7-7-7-7-7-7-7-|
E |-5-5-5-5-5-5-5---|-----------------|---------------5-|-5-5-5-5-5-5-5-5-|
   (played two times)

Second intro:

   Both guitars:
e |-----------------|-----------------|-----------------|-----------------|
B |-----------------|-----------------|-----------------|-----------------|
G |-----------------|-----------------|-----------------|-----------------|
D |-----------------|-----------------|-----------------|-----------------|
A |-----------------|-----------------|-5---5-5---5-5-5-|-----------------|
E |-5---5-5---5-5-5-|-3---3-3---3-3-3-|-----------------|-5---5-5---5-5-5-|
   (played two times)

Verse:

   Both guitars:
e |-----------------|-----------------|-----------------|-----------------|
B |-----------------|-----------------|-----------------|-----------------|
G |-----------------|-----------------|-----------------|-----------------|
D |-----------------|-----------------|-----------------|-----------------|
A |-----------------|-----------------|-5---5-5---5-5-5-|-----------------|
E |-5---5-5---5-5-5-|-3---3-3---3-3-3-|-----------------|-5---5-5---5-5-5-|
   (played four times)

Pre-chorus:

   Both guitars:
e |-----------------|-----------------|-----------------|-----------------|
B |-----------------|-----------------|-----------------|-----------------|
G |-----------------|-----------------|-----------------|-----------------|
D |-9---9-9-9-9-9-9-|-7---7-7-7-7-7-7-|-9---9-9-9-9-9-9-|---7-7-7---6-6-6-|
A |-7---7-7-7-7-7-7-|-5---5-5-5-5-5-5-|-7---7-7-7-7-7-7-|---5-5-5---4-4-4-|
E |-----------------|-----------------|-----------------|-----------------|

e |-----------------|-----------------|-----------------|-----------------|
B |-----------------|-----------------|-----------------|-----------------|
G |-----------------|-----------------|-----------------|-----------------|
D |-9---9-9-9-9-9-9-|-7---7-7-7-7-7-7-|-9-9-9-9-9-9-9-9-|-9-9-9-9-9-9-9-9-|
A |-7---7-7-7-7-7-7-|-5---5-5-5-5-5-5-|-7-7-7-7-7-7-7-7-|-7-7-7-7-7-7-7-7-|
E |-----------------|-----------------|-----------------|-----------------|

Chorus:

   Guitar 1:
e |-----------------|-----------------|-----------------|-----------------|
B |-----------------|-----------------|-----------------|-----------------|
G |-----------------|-----------------|-----------------|-----------------|
D |---------------0-|-----0---0---0---|-2---2---2-------|-----------------|
A |-0---0---0-2-4---|-----------------|---------------O-|-----0---0---0---|
E |-----------------|-----------------|-----------2-4---|-----------------|
   (played three times)

   Guitar 2:
e |-----------------|-----------------|-----------------|-----------------|
B |-----------------|-----------------|-----------------|-----------------|
G |-----------------|-----------------|-----------------|-----------------|
D |---------------7-|-----7-7-7-7-7-7-|-9-9-9-9-9-9-9---|-----------------|
A |-7-7-7-7-7-7-7-5-|-----5-5-5-5-5-5-|-7-7-7-7-7-7-7-7-|-7-7-7-7-7-7-7-7-|
E |-5-5-5-5-5-5-5---|-----------------|---------------5-|-5-5-5-5-5-5-5-5-|
   (played three times)

   Guitar 1:
e |-----------------|-----------------|-----------------|-----------------|
B |-----------------|-----------------|-----------------|-----------------|
G |-----------------|-----------------|-4-4-4-4-4-4-4-4-|-4---------------|
D |---------------0-|-----0---0---0---|-2-2-2-2-2-2-2-2-|-2---------------|
A |-0---0---0-2-4---|-----------------|-----------------|-----------------|
E |-----------------|-----------------|-----------------|-----------------|

   Guitar 2:
e |-----------------|-----------------|-----------------|-----------------|
B |-----------------|-----------------|-----------------|-----------------|
G |-----------------|-----------------|-----------------|-----------------|
D |---------------7-|-----7-7-7-7-7-7-|-9-9-9-9-9-9-9-9-|-9---------------|
A |-7-7-7-7-7-7-7-5-|-----5-5-5-5-5-5-|-7-7-7-7-7-7-7-7-|-7---------------|
E |-5-5-5-5-5-5-5---|-----------------|-----------------|-----------------|

Second chorus:

   Guitar 1:
e |-----------------|-----------------|-----------------|-----------------|
B |-----------------|-----------------|-----------------|-----------------|
G |-----------------|-----------------|-----------------|-----------------|
D |---------------0-|-----0---0---0---|-2---2---2-------|-----------------|
A |-0---0---0-2-4---|-----------------|---------------O-|-----0---0---0---|
E |-----------------|-----------------|-----------2-4---|-----------------|
   (played four times)

   Guitar 2:
e |-----------------|-----------------|-----------------|-----------------|
B |-----------------|-----------------|-----------------|-----------------|
G |-----------------|-----------------|-----------------|-----------------|
D |---------------7-|-----7-7-7-7-7-7-|-9-9-9-9-9-9-9---|-----------------|
A |-7-7-7-7-7-7-7-5-|-----5-5-5-5-5-5-|-7-7-7-7-7-7-7-7-|-7-7-7-7-7-7-7-7-|
E |-5-5-5-5-5-5-5---|-----------------|---------------5-|-5-5-5-5-5-5-5-5-|
   (played four times)

   Guitar 1:
e |-----------------|-----------------|-----------------|-----------------|
B |-----------------|-----------------|-----------------|-----------------|
G |-----------------|-----------------|-----------------|-----------------|
D |---------------0-|-----0---0---0---|-2---2---2-------|-----------------|
A |-0---0---0-2-4---|-----------------|---------------O-|-----0---0---0---|
E |-----------------|-----------------|-----------2-4---|-----------------|

   Guitar 2:
e |-----------------|-----------------|-----------------|-----------------|
B |-----------------|-----------------|-----------------|-----------------|
G |-----------------|-----------------|-----------------|-----------------|
D |-7-7-7-7-7-7-7-7-|-7-7-7-7-7-7-7-7-|-7-7-7-7-7-7-7-7-|-7-7-7-7-7-7-7-7-|
A |-----------------|-----------------|-----------------|-----------------|
E |-----------------|-----------------|-----------------|-----------------|

   Guitar 1:
e |-----------------|-----------------|-----------------|-----------------|
B |-----------------|-----------------|-----------------|-----------------|
G |-----------------|-----------------|-4-4-4-4-4-4-4-4-|-4-4-4-4-4-4-4-4-|
D |---------------0-|-----0---0---0---|-2-2-2-2-2-2-2-2-|-2-2-2-2-2-2-2-2-|
A |-0---0---0-2-4---|-----------------|-----------------|-----------------|
E |-----------------|-----------------|-----------------|-----------------|

   Guitar 2:
e |-----------------|-----------------|-----------------|-----------------|
B |-----------------|-----------------|-----------------|-----------------|
G |-----------------|-----------------|-----------------|-----------------|
D |---------------7-|-----7-7-7-7-7-7-|-9-9-9-9-9-9-9-9-|-9-9-9-9-9-9-9-9-|
A |-7-7-7-7-7-7-7-5-|-----5-5-5-5-5-5-|-7-7-7-7-7-7-7-7-|-7-7-7-7-7-7-7-7-|
E |-5-5-5-5-5-5-5---|-----------------|-----------------|-----------------|

   Guitar 1:
e |-----------------|-----------------|-0---------------|-----------------|
B |-----------------|-----------------|-2---------------|-----------------|
G |-4-4-4-4-4-4-4-4-|-4-4-4-4-4-4-4-4-|-2---------------|-----------------|
D |-2-2-2-2-2-2-2-2-|-2-2-2-2-2-2-2-2-|-2---------------|-----------------|
A |-----------------|-----------------|-0---------------|-----------------|
E |-----------------|-----------------|-----------------|-----------------|

   Guitar 2:
e |-----------------|-----------------|-5---------------|-----------------|
B |-----------------|-----------------|-5---------------|-----------------|
G |-----------------|-----------------|-6---------------|-----------------|
D |-9-9-9-9-9-9-9-9-|-9-9-9-9-9-9-9-9-|-7---------------|-----------------|
A |-7-7-7-7-7-7-7-7-|-7-7-7-7-7-7-7-7-|-7---------------|-----------------|
E |-----------------|-----------------|-5---------------|-----------------|

Intro
Second intro
Verse
Pre-chorus
Chorus
Intro
Verse
Pre-chorus
Chorus
Intro
Chorus
Second chorus

Lyrics:

I'm sitting in the supermarket
On the disposable shelf
I'm kinda like a sandwich
I kinda need some help
Most people they pass me up
Some stop and buy
But when they take me home
They never look in my eye

The supermarket shelf is a lie
I know, we saw
The guy from the record company
Makes me wanna die

Everybody sells and everybody buys
People who don't like that get blood in the eye
Everybody sells and everybody buys
People who don't like that get blood,
Get blood in the eye

I'm proud of the corporate logo 
Written on my box
It says that I'm ok
For the company stock
What I am I do not own
I don't know who does
Maybe any, some institution
With no flesh, flesh or blood

The supermarket shelf is a lie
I know, we saw
The guy from the record company
Makes me wanna die

Everybody sells and everybody buys
People who don't like that get blood in the eye
Everybody sells and everybody buys
People who don't like that get blood,
Get blood in the eye

Everybody sells and everybody buys
Everybody sells and everybody buys
Everybody sells and everybody buys
Everybody sells and everybody buys

Everybody sells and everybody buys
Everybody sells in the supermarket
Supermarket got me blind
            
Submit corrections

comments powered by Disqus
↑ Back to top | Iggy Pop Tabs for Supermarket. Lyrics for acoustic guitar and electric guitar. Tablatures and chords are parodies/interpretations of the original songs. You may use it for private study, scholarship, research or language learning purposes only