>
 >
Sister Midnight 2

Sister Midnight 2 Bass Tabs

Iggy Pop - Sister Midnight 2 chords, tabs, tablatures, lyrics

Guitar lessons | Add/correct | Request | Top 50 tabs Artists:  A B C D E F G H I J K L M N O P Q R S T U V W X Y Z 0-9

Sister Midnight 2 Bass Tabs – Iggy Pop

CD, Sheet music, Poster

Do you like Sister Midnight 2? Share with your friends now
Bass TabsBass Tabs v2Bass Tabs v3Bass Tabs v4
-------------------------------------------------------------------------------
			     SISTER MIDNIGHT - Iggy Pop
-------------------------------------------------------------------------------



First, play this:
G|-----------------|-----------------|
D|-----------------|-----------------|
A|-----------------|-----------------|
E|-3~--------------|-5~--------------|


Then the rest of the song goes like this:
G|-----------------|---------2-4-----|
D|-----------------|-------------3-5-|
A|-----------------|-----------------|
E|-3---331-3-------|-3---331---------|


Sometimes you skip that little fill and just play this:
G|-----------------|-----------------|
D|-----------------|-----------------|
A|-----------------|-----------------|
E|-3---331-3-------|-3---331-3-------|

And that's pretty much it.





Comments


Popular Iggy Pop tabs & chords
Sister Midnight Bass Tabs
Candy Chords
Miss Argentina Chords
Pumping For Jill Chords
Success Chords
Consolation Prizes Tabs
Gimme Danger Tabs
Jealousy Tabs
Now I Wanna Be Your Dog (Intro) Tabs
Real Wild Child Ukulele


Song lyrics



↑ Back to top | Tablatures and chords are parodies/interpretations of the original songs. You may use it for private study, scholarship, research or language learning purposes only
© 2014 AZChords.com Contact us | Privacy policy | DMCA | Add/correct tabs | Request tabs | Top 50 tabs