» » »

Iggy Pop, Search And Destroy Bass tabs (ver.1)

Artists:  A B C D E F G H I J K L M N O P Q R S T U V W X Y Z # 

Search And Destroy Bass tabs (ver.1)

Iggy Pop Tabs
 Rating:
4/5 (4 votes)
Search And Destroy lessons Tabs too difficult? Try these video lessons and learn fast
                Intro
------------------------------------------------------
------------------4444--------------------------------
-----44--2--4--2------44------------------------------
--------4---------------------------------------------


verse
------------------------------------------------------
-----------------------------444----------------------
--444444442200000022-44-2-4-2----44-------------------
-----------------------4------------------------------

Different variations for the 3rd Chorus
------------------------------------------------------
------------------------------------------------------
--44-4----22-2---00-0---22-2--------------------------
----4-4-----2-2----0-0----2-2-------------------------

------------------------------------------------------
------------------------------------------------------
----4-4------2-2-----0-0----2-2-----------------------
-----4-4------2-2-----0-0----2-2----------------------

-----------------------------------------------------------
-----------------------------------------------------------
----4-4------2-2-----0-0----2-2----------------------------
-----4-4------2-2-----0-0----2-2---------------------------


------6----- 4---- 2-----4---------------------------------
-----6----- 4---- 2-----4----------------------------------
--4-----  2----0-----2-------------------------------------
---4-------2----0-----2------------------------------------


-----6----- 4---- 2-----4----------------------------------
----6----- 4---- 2-----4-----------------------------------
--4-----  2----0-----2-------------------------------------
-----------------------------------------------------------




--------------------------------------------11111111111111-----1111111111111-
----------------------222222222--22222--2-4-----------------2-4--------------
------------------2-4-----------------2-------------------2------------------
0/22222 0/22222 4------------------------------------------------------------
            
Submit corrections

comments powered by Disqus
↑ Back to top | Iggy Pop Bass for Search And Destroy. Lyrics for acoustic guitar and electric guitar. Tablatures and chords are parodies/interpretations of the original songs. You may use it for private study, scholarship, research or language learning purposes only