» » »

Iggy Pop, Nightclubbing Bass tabs (ver.1)

Artists:  A B C D E F G H I J K L M N O P Q R S T U V W X Y Z # 

Nightclubbing Bass tabs (ver.1)

Iggy Pop Tabs
Rating:
5/5 (1 vote)
Nightclubbing lessons Tabs too difficult? Try these video lessons and learn fast
                IGGY POP- NIGHTCLUBBING
Tuning: Standard
Bassist: George Murray

h- Hammer On

INTRO

G:|----------------|
D:|----------------|x12
A:|----------------|
E:|1h3--3--3--3----|

G:|----------------|
D:|----------------|x3
A:|3h5--5--5--5----|
E:|----------------|

G:|----------------|
D:|----------------|
A:|3h5--5-3-1------|
E:|-----------3-0-1|

G:|----------------|
D:|----------------|x2
A:|----------------|
E:|4h6--6--6--6----|

G:|----------------|
D:|----------------|x2
A:|----------------|
E:|1h3--3--3--3----|


VERSE

G:|----------------|
D:|----------------|x8
A:|----------------|
E:|1h3--3--3--3----|

G:|----------------|
D:|----------------|x3
A:|3h5--5--5--5----|
E:|----------------|

G:|----------------|
D:|----------------|
A:|3h5--5-3-1------|
E:|-----------3-0-1|

G:|----------------|
D:|----------------|x2
A:|----------------|
E:|4h6--6--6--6----|

G:|----------------|
D:|----------------|x2
A:|----------------|
E:|1h3--3--3--3----|


GUITAR SOLO

G:|----------------|
D:|----------------|x2
A:|----------------|
E:|1h3--3--3--3----|

G:|----------------|
D:|----------------|x3
A:|3h5--5--5--5----|
E:|----------------|

G:|----------------|
D:|----------------|
A:|3h5--5-3-1------|
E:|-----------3-0-1|

G:|----------------|
D:|----------------|x2
A:|----------------|
E:|4h6--6--6--6----|

G:|----------------|
D:|----------------|x6
A:|----------------|
E:|1h3--3--3--3----|


BRIDGE

G:|----------------|
D:|----------------|x4
A:|----------------|
E:|1h3--3--3--3----|


VERSE

G:|----------------|
D:|----------------|x8
A:|----------------|
E:|1h3--3--3--3----|

G:|----------------|
D:|----------------|x3
A:|3h5--5--5--5----|
E:|----------------|

G:|----------------|
D:|----------------|
A:|3h5--5-3-1------|
E:|-----------3-0-1|

G:|----------------|
D:|----------------|x2
A:|----------------|
E:|4h6--6--6--6----|

G:|----------------|
D:|----------------|x2
A:|----------------|
E:|1h3--3--3--3----|


OUTRO

G:|----------------|
D:|----------------|x20
A:|----------------|
E:|1h3--3--3--3----|
            
Submit corrections

comments powered by Disqus
↑ Back to top | Iggy Pop Bass for Nightclubbing. Lyrics for acoustic guitar and electric guitar. Tablatures and chords are parodies/interpretations of the original songs. You may use it for private study, scholarship, research or language learning purposes only