» » »

Neon Forest Tabs (ver.1)

Artists:  A B C D E F G H I J K L M N O P Q R S T U V W X Y Z # 

Neon Forest Tabs (ver.1)

Iggy Pop
Rating:
0/5 (0 votes)

Hard to play? Try these video lessons and learn fast.
                Album : brick by brick
Song : Neon forest


Tuning = normal
 
This version sounds OK, I guess,


Intro
C Am  C  Am

Guitar 1 
Distortion

"Oh I get it, one, two , one two thee four"
		
E--------------------------------------------|
B-----------------------------7-7-7-7--5-----|
G--5--------5--------5--------7-7-7-7--5-----| x4
D--5---7-7--5---7-7--5---7-7--7-7-7-7--5-----|
A------7-7------7-7------7-7-----------------|
E------5-5------5-5------5-5-----------------|

time: 54''

E-----------------------------------------------|
B---7--------------------7-7-7-7--5--7-7-7-7--5-|
G---7-7-7-5------5-7-5---7-7-7-7--5--7-7-7-7--5-|x2
D---7----------7---------7-7-7-7--5--7-7-7-7--5-|
A-----------------------------------------------|
E-----------------------------------------------|

		
E----------------------------------------------|
B---------------------7-7-7-7--5--7-7-7-7--5---|
G--5--------5---------7-7-7-7--5--7-7-7-7--5---| x4
D--5---7-7--5---7-7---7-7-7-7--5--7-7-7-7--5---|
A------7-7------7-7----------------------------|
E------5-5------5-5----------------------------|

"The neon forest.."
E----------------------------|
B----------------------------|
G--7---5--9--4---7--5--9-----|x2
D--7---5--9--4---7--5--9-----|
A--5---3--7--2---5--3--7-----|
E----------------------------|
                      riffs
time : 2'14
"My brain ....."

E-------------------------------------------|
B--8---10---8---10-10----8---10---8--10-10--|
G--9---9----9---9--9-----9---9----9--9--9---|
D-------------------------------------------|
A-------------------------------------------|
E-------------------------------------------|

E---------------------------------------------|
B-----------------------7-7-7-7--5--7-7-7-7--5-|
G---7-7-7-5------5-7-5--7-7-7-7--5--7-7-7-7--5-|x2
D---7----------7--------7-7-7-7--5--7-7-7-7--5-|
A---5------------------------------------------|
E----------------------------------------------|

2'40

E----------------------------------------------|
B-----------------------7-7-7-7--5--7-7-7-7--5-|
G-----7-7-5------5-7-5--7-7-7-7--5--7-7-7-7--5-|x4
D---7----------7--------7-7-7-7--5--7-7-7-7--5-|
A---7------------------------------------------|
E---5------------------------------------------|


E----------------------------|
B----------------------------|
G--7---5--9--4---7--5--9-----|x2
D--7---5--9--4---7--5--9-----|
A--5---3--7--2---5--3--7-----|
E----------------------------|

E-------------------------------------------|
B--8---10---8---10-10----8---10---8--10-10--|
G--9---9----9---9--9-----9---9----9--9--9---|
D-------------------------------------------|
A-------------------------------------------|
E-------------------------------------------|

3'47

E-------------------------------------------|
B----------------------------10--13-12 13---|
G---7--7-7-5------5-7-5---11----------------|
D---7----------7----------------------------|
A---5---------------------------------------|
E-------------------------------------------|

E--------------------------------------------|
B-------------------------7b8--5---7b8--5----|
G---7--7-7-5------5-7-5---7b8--5---7b8--5----|
D---7----------7----------0--------0---------|
A---5----------------------------------------|
E--------------------------------------------|

4'
E----------------------------------------------|
B---------------------7-7-7-7--5--7-7-7-7--5---|
G--5--------5---------7-7-7-7--5--7-7-7-7--5---| x4
D--5---7-7--5---7-7---7-7-7-7--5--7-7-7-7--5---|
A------7-7------7-7----------------------------|
E------5-5------5-5----------------------------|


until the end

Lyrics
I'm sliding like a lizard on my belly and back
It's a miracle I haven't fallen through any cracks
The life on display is trouble for sure
The drugs that I took have made me impure

The neon forest is lighting up
The neon forest is lighting up
My brain

I've learned some nasty lessons so I'm shutting
My mouth
A fury in my gut is spinning me round
and round
To be a total phony is the winning design
When the fabric of life is a horny goldmine

The neon forest is my home
And like a cartoon cat I roam
Where only kids are still alive
And anyway they're gonna fry
My brain

You can get a weird prize for being adored
You can join the "in crowd" for being a whore
Although you are lonely you wish for a fence
America takes drugs in psychic defense
You can say what you want but nobody's there
Have you got any money?
Are you anybody?
            
Hard to play? Try these video lessons and learn fast. | Correct




comments powered by Disqus
↑ Back to top | Tablatures and chords are parodies/interpretations of the original songs. You may use it for private study, scholarship, research or language learning purposes only