>
 >
Nazi Girlfriend

Nazi Girlfriend Guitar Tabs

Iggy Pop - Nazi Girlfriend chords, tabs, tablatures, lyrics

Guitar lessons | Add/correct | Request | Top 50 tabs Artists:  A B C D E F G H I J K L M N O P Q R S T U V W X Y Z 0-9

Nazi Girlfriend Guitar Tabs – Iggy Pop

CD, Sheet music, Poster

Do you like Nazi Girlfriend? Share with your friends now
Tabs
Hola, and welcome to my tab for Nazi Girlfriend by Iggy Pop. If you're like me, you've
countless hours searching the web for help with playing Nazi Girlfriend and found
Luckily enough for me though, I one day stumbled across a statement somewhere saying the 
was in Open G, and then I was well on my way.

I'd like to note a few things. First of all, while I labelled this as aa song in Open G,
tend to play it in D G D G Bb/A# D, rather than the standard Open G which is D G D G B
It's a personal preference, and you are welcome to try any of the few variations of how 
play Nazi Girlfriend in Open G rather than the D G D G Bb/A# D variant if you like the
better. Also, I find it highly unlikely that any of my interpretations of this song are 
or one hundred percent correct; however, I find them more than satisfactory. After all, 
wants to play everything the same as everybody else all the time?

Variation One of Nazi Girlfriend, tuning: A G D G Bb/A# D

Now then, I suppose we should get on with it. I'll start with the chords, which are as follows:

D |-0----0----0----0----0----0--0--0-|
G |-0----0----0----0----0----0--0--0-|
D |-5----4----3----2----0----2--4--5-|
G |-7----5----5----3----0----3--2--0-|
Bb|-0----0----0----0----0----0--0--4-|
D |-0----0----0----0----0----0--0--0-|

And now for the picking:

D |-------------------------|-------------------------|
G |-0-----------0-----------|-0-----------0-----------|
D |----5-----5-----5-----5--|----4-----4-----4-----4--|
G |-------7-----------7-----|-------5-----------5-----|
Bb|-------------------------|-------------------------|
D |-------------------------|-------------------------|

D |-------------------------|-------------------------|
G |-0-----------0-----------|-0-----------0-----------|
D |----3-----3-----3-----3--|----2-----2-----2-----2--|
G |-------5-----------5-----|-------3-----------3-----|
Bb|-------------------------|-------------------------|
D |-------------------------|-------------------------|

And here's where the picking pattern suddenly changes. Also, at the end, the finger on
D string is no longer in a higher fret than the finger on the G string; in fact, they
places.

D |-------------------------|-------------------------------|
G |-0-----------0-----------|-0--------0--------0-----------|
D |----0-----0-----0-----0--|----2--------4--------5--------|
G |-------0-----------0-----|-------3--------2--------0-----|
Bb|-------------------------|----------------------------4--|
D |-------------------------|-------------------------------|

And, as promised, here is my second evolution of the song. The changes mainly consist of
strings are played and which aren't during the chords and a slightly different pattern
the picking section where all of the strings are open, but they're not major; rather, 
subtle.

Variation Two of Nazi Girlfriend, tuning: D G D G Bb/A# D

D |-0----0----0----0----0----0--0--0-|
G |-0----0----0----0----0----0--0--0-|
D |-5----4----3----2----0----2--4--5-|
G |-7----5----5----3----0----3--2--0-|
Bb|-X----X----X----0----0----0--0--X-| (Note, the Bb is now closed instead.)
D |-X----X----X----X----X----X--X--X-| (The high D is always closed now.)

The following sections remain the same.

D |-------------------------|-------------------------|
G |-0-----------0-----------|-0-----------0-----------|
D |----5-----5-----5-----5--|----4-----4-----4-----4--|
G |-------7-----------7-----|-------5-----------5-----|
Bb|-------------------------|-------------------------|
D |-------------------------|-------------------------|

D |-------------------------|-------------------------|
G |-0-----------0-----------|-0-----------0-----------|
D |----3-----3-----3-----3--|----2-----2-----2-----2--|
G |-------5-----------5-----|-------3-----------3-----|
Bb|-------------------------|-------------------------|
D |-------------------------|-------------------------|

And once again, the change comes at the end of the picking cycle. Note that the Bb in
final section is once again played in the chord, but the high D is not.

D |-------------------------|--------------------0----|
G |-0-----------0-----------|-0--------0---------0----|
D |----0-----------0--------|----2--------4------5----|
G |----------0-----------0--|-------3--------2---0----|
Bb|-------0-----------0-----|--------------------4----|
D |-------------------------|--------------------X----|

Because this song seems to be a constatly shifting miasma of brilliant songwriting, I've
up with even more variations of the song since the creation of the first two I've
here. However, I think you're better off using what I've given you as a guide to coming 
with your own interpretations of the song. I may yet update this tab with other versions
so check back every now and then.

I truely hope this tab has helped a few lost people out there who, like I once was, were
around blindly in search of a Nazi Girlfriend tab.

Should you have any questions or comments about the tab, or if you'd like to share any
your own interpretations of the song, feel free to contact me at
where I check my email regularly. Rest assured, I'll be sure to give you the credit for 
you decide to send me, whether it ends up being posted here or you just wished to share 
findings
me.

That concludes my tab for Nazi Girlfriend! I hope that you, the reader, enjoyed my work
that you took something useful away from it.

Peace out!
JESUS LOVES THE STOOGES!





Comments


Popular Iggy Pop tabs & chords
Real Wild Child Bass Tabs
Sister Midnight 4 Bass Tabs
Butt Town Chords
Cry For Love Chords
Squarehead Chords
Dum Dum Boys Tabs
Home Tabs
Never Met A Girl Like You Before Tabs
The Passenger 2 Tabs
Passenger Ukulele


Song lyrics



↑ Back to top | Tablatures and chords are parodies/interpretations of the original songs. You may use it for private study, scholarship, research or language learning purposes only
© 2014 AZChords.com Contact us | Privacy policy | DMCA | Add/correct tabs | Request tabs | Top 50 tabs