» » »

Lust For Life Bass tabs (ver.2)

Artists:  A B C D E F G H I J K L M N O P Q R S T U V W X Y Z # 

Lust For Life Bass tabs (ver.2)

Iggy Pop
Rating:
0/5 (0 votes)

Hard to play? Try these video lessons and learn fast.
                This is not the whole song.

G|-----------------------------------------------------|
D|*----------------------------------------------------|
A|*----------------------------------------------------|
E|---5-5-5-x--5-5-5-5-0--5-5-5-x--5-5-x--5-5-3-0-------|


G|-----------------------------------------------------|
D|*----------------------------------------------------|
A|*-------------------------------5h7--5-----5-7-------|
E|---5-5-5-x--5-5-5-5-0--5-5-5-x----------7------------|


G|-----------------------------------------------------|
D|*----------------------------------------------------|
A|*----------------------------------------------------|
E|---5-5-5-x--5-5-5-5-0--5-5-5-x--5-5-5-5-0------------|


G|-----------------------------------------------------|
D|*----------------------------------------------------|
A|*----------------------------------------------------|
E|---5-5-5-x--5-5-5-5-0--5-5-5-x--5-5-5-5-0------------|


G|-----------------------------------------------------|
D|*----------------------------------------------------|
A|*--7-7-7----7-7-7-7----7-7-7---7-7-7-7----7-7-7------|
E|---------7----------7-------7----------7-------7-----|


G|-----------------------------------------------------|
D|*----------------------------------------------------|
A|*--7-7-7-7----7-7-7----7-7-7-7-----------------------|
E|-----------7--------7-----------5-5-5-x--5-5-5-5-0---|


G|-----------------------------------------------------|
D|*----------------------------------------------------|
A|*----------------------------------------------------|
E|---5-5-5-x--5-5-5-5-0--5-5-5-x--5-5-5-5-0--5-5-5-x---|


G|-----------------------------------------------------|
D|*----------------------------------------------------|
A|*-------4-5-6-7-7-7----7-7-7-7----7-7-7----7-7-7-7---|
E|---5-x--------------7----------7--------7----------7-|
		

G|-----------------------------------------------------|
D|*---------------------------------------4-5-5-5------|
A|*--7-7-7----7-7-7-7----7-7-7----7-7-x-7---------5----|
E|---------7----------7--------7-----------------------|


G|-----------------------------------------------------|
D|*--5-5-5-5----5-5-5----5-9---------------------------|
A|*----------5--------5------8-7--5-5-5----5-5-5-5-----|
E|--------------------------------------5---------5----|
            
Hard to play? Try these video lessons and learn fast. | Correct




comments powered by Disqus
↑ Back to top | Tablatures and chords are parodies/interpretations of the original songs. You may use it for private study, scholarship, research or language learning purposes only