» » »

Iggy Pop, Little Know It All Tabs (ver.2)

Artists:  A B C D E F G H I J K L M N O P Q R S T U V W X Y Z # 

Little Know It All Tabs (ver.2)

Iggy Pop Tabs
Rating:
4/5 (3 votes)
Little Know It All lessons Tabs too difficult? Try these video lessons and learn fast
                Little Know It All
Iggy Pop and Sum 41

Intro
|-----------------------------|
|-----------------------------|
|-----------------7-7-7-------|
|x-x-x-4-4-2-4-2--7-7-7-7-7-7-|
|x-x-x-4-4-2-4-2--5-5-5-7-7-7-|
|x-x-x-2-2-0-2-0--------5-5-5-|

Verse 1
|--------------------------------------------------------------|
|--------------------------------------------------------------|
|11-11-9--11-9--11-11-11-9--9--9-----11-11-9--11-9--14--13-----|
|x--x--x--x--x--x--x--x--x--x--x-----x--x--x--x--x--x---x------|
|9--9--7--9--7--9--9--9--7--7--7-----9--9--7--9--7--12--11-----|
|--------------------------------------------------------------|

Verse 2
|----------------------------------------------|
|----------------------------------------------|
|----------------------------------7-7-7-------|
|4-4-2-4-2-4-4-4-2-2-2---4-4-2-4-2-7-7-7-7-7-7-|
|4-4-2-4-2-4-4-4-2-2-2---4-4-2-4-2-5-5-5-7-7-7-|
|2-2-0-2-0-2-2-2-0-0-0---2-2-0-2-0-------5-5-5-|

Fill of chords used after both verses
|--------|
|--------|
|---2--4-|
|2--2--4-|
|2--0--2-|
|0-------|

Chorus
|-----------------------------------------------------------|
|--------------------------------------9--------------------|
|----------7-7-7-7-7--------------8h10---10h8--10-----8--10-|
|4-4-4-4-4-7-7-7-7-7-7-7-7-7-7-2---------------10--6--8--10-|
|4-4-4-4-4-5-5-5-5-5-7-7-7-7-7-2---------------8---6--6--8--|
|2-2-2-2-2-----------5-5-5-5-5-0-------------------4--------|

First Solo
|---^------------------------^----------------------------|
|---9------------------------9--------9-9-9-8-8-8---------|
|10---10-8-8-10-10-10-8-8-10---10-8-8-------------10-8-10-|
|---------------------------------------------------------|
|---------------------------------------------------------|
|---------------------------------------------------------|

Second Solo
|----------------------------------------------------^-^--------------|
|----------------------------------------------------9-8--11-9-8------|
|10-10-10-8----------------------------10-10-10-8----------------10h8-|
|-----------10-8-10-10--10-9h8-9h8----------------10------------------|
|----------------------------------10---------------------------------|
|---------------------------------------------------------------------|

|----------------11-11-11-11------------------------14-14-14--9---7---5-|
|--------------9-------------9-8~---8-9-11--13-11-9-----------13--11--9-|
|10-10-10-8-------------------------------------------------------------|
|-----------10----------------------------------------------------------|
|-----------------------------------------------------------------------|
|-----------------------------------------------------------------------|
            
Submit corrections

comments powered by Disqus
↑ Back to top | Iggy Pop Tabs for Little Know It All. Lyrics for acoustic guitar and electric guitar. Tablatures and chords are parodies/interpretations of the original songs. You may use it for private study, scholarship, research or language learning purposes only