» » »

Iggy Pop, Kill City Tabs (ver.1)

Artists:  A B C D E F G H I J K L M N O P Q R S T U V W X Y Z # 

Kill City Tabs (ver.1)

Iggy Pop Tabs
 Rating:
3.7/5 (6 votes)
Kill City lessons Tabs too difficult? Try these video lessons and learn fast
1
                -------------------------------------------------------------------------------
-------------------------------------------------------------------------------

Tuning: Standard


e|---------------------------|
B|---------------------------|
G|--11--11-9--9-11-11-9-9-8--|
D|--11--11-9--9-11-11-9-9-8--|
A|--9---9--7--7-9--9--7-7-6--|
E|---------------------------|
	Intro (x3)

e|------------------------------|
B|------------------------------|
G|--5-5--5-5-6-5-7-5-5--5-4-4-3-|
D|--5-5--5-5-6-5-7-5-5--5-4-4-3-|
A|--3-3--3-3-4-3-5-3-3--3-2-2-1-|
E|------------------------------|
	Intro Continued (x2)

e|-------------------------------|
B|-------------------------------|
G|--5-5--5-5-6-5-7-5-5---5-4-4-3-|
D|--5-5--5-5-6-5-7-5-5---5-4-4-3-|
A|--3-3--3-3-4-3-5-3-3---3-2-2-1-|
E|-------------------------------|
  Well I live here in Kill City where the debris meets the sea
I live here in Kill City where the debris meets the sea


e|------------------------------------------------|
B|------------------------------------------------|
G|-5-5-5-5-7-5-5-5-5-7-5-5-5-5-7--4-4-4-4-4-4-4-4-|
D|-5-5-5-5-7-5-5-5-5-7-5-5-5-5-7--4-4-4-4-4-4-4-4-|
A|-3-3-3-3-5-3-3-3-3-5-3-3-3-3-5--2-2-2-2-2-2-2-2-|
E|------------------------------------------------|
  It's a playground to the rich, but it's a loaded gun to me


e|---------------------------------------|
B|---------------------------------------|
G|-5-5-6-5-7-5-5-6-5-7-5-5-6-5-7-5-4-4-3-|
D|-5-5-6-5-7-5-5-6-5-7-5-5-6-5-7-5-4-4-3-|
A|-3-3-4-3-5-3-3-4-3-5-3-3-4-3-5-3-2-2-1-|
E|---------------------------------------|
  Well I'm sick of keeping quiet, and I am the wild voice
I'm sick of keeping quiet, and I am the wild voice


e|------------------------------------------------|
B|------------------------------------------------|
G|-5-5-5-5-7-5-5-5-5-7-5-5-5-5-7--4-4-4-4-4-4-4-4-|
D|-5-5-5-5-7-5-5-5-5-7-5-5-5-5-7--4-4-4-4-4-4-4-4-|
A|-3-3-3-3-5-3-3-3-3-5-3-3-3-3-5--2-2-2-2-2-2-2-2-|
E|------------------------------------------------|
  But if I have to die here, first I'm gonna make some noise


e|---------|
B|---------|
G|-5-5-7-7-|
D|-5-5-7-7-|
A|-3-3-5-5-|
E|---------|

e|---------------------------|
B|---------------------------|
G|--11--11-9--9-11-11-9-9-8--|
D|--11--11-9--9-11-11-9-9-8--|
A|--9---9--7--7-9--9--7-7-6--|
E|---------------------------|
  Give it up, turn the boy loose (x4)

e|---------------------------------------|
B|---------------------------------------|
G|-5-5-6-5-7-5-5-6-5-7-5-5-6-5-7-5-4-4-3-|
D|-5-5-6-5-7-5-5-6-5-7-5-5-6-5-7-5-4-4-3-|
A|-3-3-4-3-5-3-3-4-3-5-3-3-4-3-5-3-2-2-1-|
E|---------------------------------------|
  Turn that boy loose.
Yeah the scene is fascination man and everything's for free
The scene is fascination man and everything's for free


e|------------------------------------------------|
B|------------------------------------------------|
G|-5-5-5-5-7-5-5-5-5-7-5-5-5-5-7--4-4-4-4-4-4-4-4-|
D|-5-5-5-5-7-5-5-5-5-7-5-5-5-5-7--4-4-4-4-4-4-4-4-|
A|-3-3-3-3-5-3-3-3-3-5-3-3-3-3-5--2-2-2-2-2-2-2-2-|
E|------------------------------------------------|
  Til you wind up in some bathroom, overdosed and on your knees


e|---------|
B|---------|
G|-5-5-7-7-|
D|-5-5-7-7-|
A|-3-3-5-5-|
E|---------|

e|---------------------------|
B|---------------------------|
G|--11--11-9--9-11-11-9-9-8--|
D|--11--11-9--9-11-11-9-9-8--|
A|--9---9--7--7-9--9--7-7-6--|
E|---------------------------|
  Give it up, turn the boy loose(x6)

--Hope this wasn't too confusing for you! This is my first tab, so sorry if it's sloppy.
            
Submit corrections

comments powered by Disqus
↑ Back to top | Iggy Pop Tabs for Kill City. Lyrics for acoustic guitar and electric guitar. 1 Tablatures and chords are parodies/interpretations of the original songs. You may use it for private study, scholarship, research or language learning purposes only