» » »

Iggy Pop, Jealousy Tabs (ver.2)

Artists:  A B C D E F G H I J K L M N O P Q R S T U V W X Y Z # 

Jealousy Tabs (ver.2)

Iggy Pop Tabs
Rating:
0/5 (0 votes)
Jealousy lessons Tabs too difficult? Try these video lessons and learn fast
                

  Title:  jealousy


main thing
-||---------------|------------------|-----------------------------||
-||-----0------2--|----0-----2--4-2--|-----0------2---4-2-0-2--0---||
-||-1------1------|-1-----1----------|-1------1------------------1-||
-||---------------|------------------|-----------------------------||
-||---------------|------------------|-----------------------------||
-||---------------|------------------|-----------------------------||

play it throughout almost the whole song,

except for a part "this isn't for the first time in my life...", it goes:

     D     A       Ab        D     A

-||--2-----0-------4-----|---2-----0-----||
-||--3-----2-------4-----|---3-----2-----||
-||--2-----2-------5-----|---2-----2-----||
-||--0-----2-------6-----|---0-----2-----||
-||-------(0)------6-----|--------(0)----||
-||---------------(4)----|---------------||
            
Submit corrections

comments powered by Disqus
↑ Back to top | Iggy Pop Tabs for Jealousy. Lyrics for acoustic guitar and electric guitar. Tablatures and chords are parodies/interpretations of the original songs. You may use it for private study, scholarship, research or language learning purposes only