» » »

Iggy Pop, I'm Bored Tabs (ver.2)

Artists:  A B C D E F G H I J K L M N O P Q R S T U V W X Y Z # 

I'm Bored Tabs (ver.2)

Iggy Pop Tabs
 Rating:
4/5 (4 votes)
I'm Bored lessons Tabs too difficult? Try these video lessons and learn fast
                Ok, there was literally no good tabs for this song anywhere on the internet so i thought 
have a go...wasn't really sure on some bits like the intro but i hope it helps you guys 
at least =D

INTRO:

e ------------------------|
B ------10-10-8-----8-8-7-|
G ----7-7--7--7---9-9-9-9-|
D --9-----------7---------|
A ------------------------|
E ------------------------|

the notes played on D should be palm muted

Main riff/verse

It seems to change randomly between the two i've tabbed below, but use whatever you want

e -----------------------------------||
B -------7-7---7---------------------||
G -------7-7-7-7-------X-12-11-9--11-||
D -9--9--9-9-9-9-9--9--X-12-12-12-12-||
A -9--9----------9--9--X-------------||
E -7--7----------7--7----------------||


e -----------------------------------||
B -----------------------------------||
G -------7-7---7-------X-12-11-9--11-||
D -9--9--9-9-9-9-9--9--X-12-12-12-12-||
A -9--9----------9--9--X-------------||
E -7--7----------7--7----------------||

Chorus:

e ----------------------------------------------------|
B ----------------------------------------------------|
G -10--10--10----10-----------------10--10--10---10---|
D -11--11--11--9-11-9-6--6--6-4-6-4-11--11--11-9-11-9-|
A -11--11--11--9-11-9-6--6--6-4-6-4-11--11--11-9-11-9-|
E -9---9---9---9-9--9-4--4--4-4-4-4-9---9---9--9-9--9-|

e -------------------5-5-5-5-5-5-5-|
B -------------5-5-5-5-5-5-5-5-5-5-|
G -----6-6-6-6-6-6-6-6-6-6-6-6-6-6-|
D -7-7-7-7-7-7-7-7-7-7-7-7-7-7-7-7-|
A -7-7-7-7-7-7-7-7-7-7-7-7-7-7-7-7-|
E -5-5-5-5-5-5-5-5-5-5-5-5-5-5-5-5-|

back to main riff

second chorus:

e -9--9--9--9--9--9--9--5--5-5-5-5-5-5-4-4-4-4-4-4-4-4-3-3-3-3-3-3-3-3-|
B -9--9--9--9--9--9--9--5--5-5-5-5-5-5-4-4-4-4-4-4-4-4-3-3-3-3-3-3-3-3-|
G -10-10-10-10-10-10-10-6--6-6-6-6-6-6-5-5-5-5-5-5-5-5-4-4-4-4-4-4-4-4-|
D -11-11-11-11-11-11-11-7--7-7-7-7-7-7-6-6-6-6-6-6-6-6-5-5-5-5-5-5-5-5-|
A -11-11-11-11-11-11-11-7--7-7-7-7-7-7-6-6-6-6-6-6-6-6-5-5-5-5-5-5-5-5-|
E -9--9--9--9--9--9--9--5--5-5-5-5-5-5-4-4-4-4-4-4-4-4-3-3-3-3-3-3-3-3-|


E ------------------------------------------------------------------|
B ------------------------------------------------------------------|
G -7-7-7-7-6-6-6-7-7-7-7-6-6-6-9--9--9--9--8-8-8--9--9--9--9--8-8-8-|
D -9-9-9-9-7-7-7-9-9-9-9-7-7-7-11-11-11-11-9-9-9--11-11-11-11-9-9-9-|
A ------------------------------------------------------------------|
E ------------------------------------------------------------------|

INTRO

Main riff/verse

second chorus

intro again

during the main riff, the lead guitar comes in slowly with the solo:

e ---------------------------------|
B ---------------------------------|
G ---------------------------------|
D -----------------------------7-9-|
A -------------------------7-9-----|
E -7-7-7-7-7-7-7-7-7-7-7-7---------|

E -------------------------------------|
B -------7-7-7-7-7-7-7-7---------------|
G -------7-7-7-7-7-7-7-7---------------|
D -------7-7-7-7-7-7-7-7-----------7-9-|
A -----------------------------7-9-----|
E -7--7------------------7--7----------|

e ------------------------------------------------|
B ------------------------------------------------|
G -7-4-~4~4~4~4~4~4~4~4~4 --------------------2-4-|
D ----------------------------------------2-4-----|
A ------------------------2-2-2-2-2-2-2-2---------|
E ------------------------------------------------|

                          pm------------`

e ----------------------------7-7-7-7-7-7-7-7-7-7-7-7-7-|
B ----------------------------10(12)(12)10(12)(12)10(12-|
G -7-4~4~4~4~4-7p4-4-9p7-7-11---------------------------|
D ------------------------------------------------------|
A ------------------------------------------------------|
E ------------------------------------------------------|

e -/17-17-17-17-17-17-17-17-17-17-|
B -/19-19-19-19-19-19-19-19-19-19-|
G --------------------------------|
D --------------------------------|
A --------------------------------|
E --------------------------------|

second chorus
Intro

ends with

e ---------|
B ---------|
G ---------|
D -9--9----|
A -9--9----|
E -7--7----|
            
Submit corrections

comments powered by Disqus
↑ Back to top | Iggy Pop Tabs for I'm Bored. Lyrics for acoustic guitar and electric guitar. Tablatures and chords are parodies/interpretations of the original songs. You may use it for private study, scholarship, research or language learning purposes only