» » »

Home Bass tabs (ver.2)

Artists:  A B C D E F G H I J K L M N O P Q R S T U V W X Y Z # 

Home Bass tabs (ver.2)

Iggy Pop
Rating:
0/5 (0 votes)

Hard to play? Try these video lessons and learn fast.
                Home by Iggy Pop
Brick by Brick


G------------------------------------|
D---------9-14-9-14-14-9-14-9-14-14--|
A------------------------------------|
E-5-5-5-0----------------------------|

VERSE
G-------------------------------|
D-------------------------------|
A-------------------------------|
D-0-5-0-5-5-0-5-0-5-5--5-5-5-0--|
  x x x x x x x x x 

CHORUS
G--------------|
D--------------|
A-----5---7----|
D-5-0---0---0--|

Any corrections please comment
Thanks
            
Hard to play? Try these video lessons and learn fast. | Correct




comments powered by Disqus
↑ Back to top | Tablatures and chords are parodies/interpretations of the original songs. You may use it for private study, scholarship, research or language learning purposes only