» » »

Gimme Danger Tabs (ver.2)

Artists:  A B C D E F G H I J K L M N O P Q R S T U V W X Y Z # 

Gimme Danger Tabs (ver.2)

Iggy Pop
Rating:
0/5 (0 votes)

Tabs too difficult? Try these video lessons and learn fast.
                Intro (acoustic):

                            
-------2----------0--------3---------------------------------------------------------
---------0----------3--------0------2------------------------------------------------
-----------0----------2--------0-------2---------------------------------------------
----------------0------------------------2-------------------------------------------
-------------------------3-------0---------------------------------------------------
----0--------------------------------------------------------------------------------

Main Riff

------------------------------------------------
--------------------------------------0---------
-----------------------------------0------------
--2----4----2----------0--------3---------------
--2----4----2-------------0---2-----------------
--0----2----0--0--3-----------------------------
            
Tabs too difficult? Try these video lessons and learn fast.


comments powered by Disqus
↑ Back to top | Tablatures and chords are parodies/interpretations of the original songs. You may use it for private study, scholarship, research or language learning purposes only