» » »

Consolation Prizes Tabs (ver.1)

Artists:  A B C D E F G H I J K L M N O P Q R S T U V W X Y Z # 

Consolation Prizes Tabs (ver.1)

Iggy Pop
Rating:
0/5 (0 votes)

Hard to play? Try these video lessons and learn fast.
                First tab. probably a few mistakes

E|--3-2-2-2-3-0-----0-2|
B|--3-3-3-3-3-3-3-3-3-3|
G|--2-2-2-2-2-2-2-2-2-2| x2
D|--------------0-0----|
A|---------------------|
E|---------------------|

E|-------------------------|
B|-------------------------|
G|--12-11-9---7---5---11---| x3
D|--12-11-9-9-7-7-5-5-11---|
A|--10-9--7-9-5-7-3-5-9----|
E|----------7---5---3------|

E|---------------------|
B|---------------------|
G|---------------------| x2
D|---------------------|
A|------------0-2------|
E|--0-2-0-2-4-----2b02b|

E|--------7-7-5-5-55|
B|----9-9-7-7-5-5-55|
G|----9-9-8-8-6-6-66| x6
D|----9-9-9-9-7-7-77|
A|----7-7-9-9-7-7-77|
E|--0-----7-7-5-5-55|

E|--7-7-7-7-5-557755|
B|--7-7-7-7-5-557755|
G|--8-8-8-8-6-668866| x2
D|--9-9-9-9-7-779977|
A|--9-9-9-9-7-779977|
E|--7-7-7-7-5-557755|

That's purty much it.
Reedzer.
            
Hard to play? Try these video lessons and learn fast. | Correct




comments powered by Disqus
↑ Back to top | Tablatures and chords are parodies/interpretations of the original songs. You may use it for private study, scholarship, research or language learning purposes only