>
 >
Shake Appeal 1

Shake Appeal 1 Guitar Tabs

Iggy And The Stooges - Shake Appeal 1 chords, tabs, tablatures, lyrics

Guitar lessons | Add/correct | Request | Top 50 tabs Artists:  A B C D E F G H I J K L M N O P Q R S T U V W X Y Z 0-9

Shake Appeal 1 Guitar Tabs – Iggy And The Stooges

CD, Sheet music, Poster

Do you like Shake Appeal 1? Share with your friends now
TabsTabs v2
-----------------------------------------------------------------------------
                 Shake Appeal- Iggy And The Stooges
-----------------------------------------------------------------------------
Instrument: Electric guitar(James williamson)
Tuning: Standard (E A D G B E)


Intro-Verse 1
E|------------------------------------------------------------------------|
B|------------------------------------------------------------------------|
G|------------------------------------------------------------------------|
D|------------------1-----------------1------------------1--3-3-3-3-3-3-3-|
A|--------------1-3----------------1-3----------------1-3---1-1-1-1-1-1-1-|
E|-1-1-1-1-1-1-3------1-1-1-1-1-1-3-----1-1-1-1-1-1-3---------------------|X4
   ............................P.M........................

E|--------------------------------------------------------|
B|--------------------------------------------------------|
G|--------------------------------------------------------|
D|-------------------1-------------------1--3-3-3-3-3-3-3-|
A|---------------1-3-----------------1-3----1-1-1-1-1-1-1-|
E|-1-1-1-1-1-1-3-------1-1-1-1-1-1-3----------------------|X1
   ............................P.M.........

E|------------------------------------------------------------------------|
B|------------------------------------------------------------------------|
G|------------------------------------------------------------------------|
D|------------------1-----------------1-----------------1--3-3-3-3-3-3-3--|
A|--------------1-3----------------1-3---------------1-3---1-1-1-1-1-1-1--|
E|-1-1-1-1-1-1-3------1-1-1-1-1-1-3-----1-1-1-1-1-1-3---------------------|X3
   ............................P.M........................

E|----------------------------------------------------------|
B|----------------------------------------------------------|
G|----------------------------------------------------------|
D|-------------------1---------------------1--3-3-3-3-3-3-3-|
A|---------------1-3-------------------1-3----1-1-1-1-1-1-1-|
E|-1-1-1-1-1-1-3---------1-1-1-1-1-1-3----------------------|X1
   ............................P.M..........

E|------------------------------------|   1:00             
B|------------------------------------|
G|------------------------------------|
D|-------------------1--3-3-3-3-3-3-3-|
A|---------------1-3----1-1-1-1-1-1-1-|
E|-1-1-1-1-1-1-3----------------------|X2
   ..........P.M......

Chorus
E|--------------------------------------------------------------------|
B|--------------------------------------------------------------------|
G|--------------------------------------------------------------------|
D|---------------------------------------------1------------------1---|
A|---2-2-3--3-3-4---------------------------1-3----------------1-3----|
E|-1---------------3-5-5-6p5---1-1-1-1-1-1-3------1-1-1-1-1-1-3-------|
                               ...................P.M...............

E|----------------------------|1:10
B|----------------------------|
G|----------------------------|
D|----------------------------|
A|---2-2-3--3-3-4-------------|
E|-1---------------3-5-5-6p5--|


Verse 2
E|------------------------------------------------------------------------|
B|------------------------------------------------------------------------|
G|------------------------------------------------------------------------|
D|------------------1-----------------1------------------1--3-3-3-3-3-3-3-|
A|--------------1-3----------------1-3----------------1-3---1-1-1-1-1-1-1-|
E|-1-1-1-1-1-1-3------1-1-1-1-1-1-3------1-1-1-1-1-1-3--------------------|X3
   ............................P.M.........................

E|----------------------------------------------------------|
B|----------------------------------------------------------|
G|----------------------------------------------------------|
D|-------------------1---------------------1--3-3-3-3-3-3-3-|
A|---------------1-3-------------------1-3----1-1-1-1-1-1-1-|
E|-1-1-1-1-1-1-3---------1-1-1-1-1-1-3----------------------|X1
   ....................P.M..................
E|------------------------------------|1:37             
B|------------------------------------|
G|------------------------------------|
D|-------------------1--3-3-3-3-3-3-3-|
A|---------------1-3----1-1-1-1-1-1-1-|
E|-1-1-1-1-1-1-3----------------------|X2
   ..........P.M......


Chorus 2
E|--------------------------------------------------------------------|
B|--------------------------------------------------------------------|
G|--------------------------------------------------------------------|
D|---------------------------------------------1------------------1---|
A|---2-2-3--3-3-4---------------------------1-3----------------1-3----|
E|-1---------------3-5-5-6p5---1-1-1-1-1-1-3------1-1-1-1-1-1-3-------|
                               ...................P.M...............

E|----------------------------|1:47
B|----------------------------|
G|----------------------------|
D|----------------------------|
A|---2-2-3--3-3-4-------------|
E|-1---------------3-5-5-6p5--|


Solo
E|--------------------------------------------------------------------------|
B|--------------------------------------------------------------------------|
G|-----------------------------------------3-3p1---1--3b-1---1--3b-1---1-3b-|
D|-------------------1-------------------1-----------------3---------3------|
A|---------------1-3-----------------1-3---------3--------------------------|
E|-1-1-1-1-1-1-3-------1-1-1-1-1-1-3----------------------------------------|
   ....................P.M................

E|--------------------------------------------------------------|
B|-4-4-4-4-4-4---10-10-10-----10-----10--10-10-10-----10-----10-|
G|-5-5-5-5-5-5---10-10-10-12b-10-12b-10--10-10-10-12b-10-12b-10-|
D|--------------------------------------------------------------|
A|--------------------------------------------------------------|
E|--------------------------------------------------------------|


E|-----------------------------------------------------------------------|
B|-10-10-10-----10--10-10-10-10-10-10-10-10------13-----13-----13-----13-|
G|-10-10-10-12b-10--10-10-10-10-10-10-10-10--15b-13-15b-13-15b-13-15b-13-|
D|-----------------------------------------------------------------------|
A|-----------------------------------------------------------------------|
E|-----------------------------------------------------------------------|

E|-------------------------------------------------16-16-16-16-|2:08
B|-------13-13-13------13-----13-----13-----13-----13-13-13-13-|
G|---15b-13-13-13--15b-13-15b-13-15b-13-15b-13-15b-15-15-15-15-|
D|-------------------------------------------------------------|
A|-------------------------------------------------------------|
E|-------------------------------------------------------------|
 

Outro
E|----------------------------------------------------------------------|3:04
B|----------------------------------------------------------------------|
G|----------------------------------------------------------------------|
D|-----------------1-----------------1-----------------1--3-3-3-3-3-3-3-|
A|--------------1-3---------------1-3---------------1-3---1-1-1-1-1-1-1-|
E|-1-1-1-1-1-1-3-----1-1-1-1-1-1-3-----1-1-1-1-1-1-3--------------------|X
   ............................P.M......................   keep playing until
                                                            fades out.





Comments


Popular Iggy And The Stooges tabs & chords
Gimme Danger Tabs
Gimme Some Skin Tabs
Head On Tabs
I Got A Right Tabs
I Wanna Be Your Dog Tabs
Passenger Tabs
Penetration Tabs
Search And Destroy Tabs
Search And Destroy 1 Tabs
Shake Appeal Tabs


Song lyrics



↑ Back to top | Tablatures and chords are parodies/interpretations of the original songs. You may use it for private study, scholarship, research or language learning purposes only
© 2014 AZChords.com Contact us | Privacy policy | DMCA | Add/correct tabs | Request tabs | Top 50 tabs