» » »

Search And Destroy Tabs (ver.2)

Artists:  A B C D E F G H I J K L M N O P Q R S T U V W X Y Z # 

Search And Destroy Tabs (ver.2)

Iggy And The Stooges
Rating:
3/5 (8 votes)

Hard to play? Try these video lessons and learn fast.
                (Intro)
Tuning: Standard

This intro is pretty much accurate but it is my first tab

eg 11(12)11 = bend up one step


e|------------------------------------------------------------------------------|
B|------------------------------------------------------------------------------|
G|--6-6--6-6--11-11-11--9---6-6-6-6-6-6-6-6--11-11-11--9------------------------|
D|--6-6--6-6--11-11-11--9---6-6-6-6-6-6-6-6--11-11-11--9------------------------|
A|--4-4--4-4---9--9--9--7---4-4-4-4-4-4-4-4---9--9--9--7------------------------|
E|------------------------------------------------------------------------------|

e|---------------------------------------------------------------------------|
B|---------------------------------------------------------------------------|
G|-------9-11-11(12)11--9-----9--------9-11-11(12)11--9------9---------------|
D|---11--------------------11-------11-------------------11-----11-----------|
A|---------------------------------------------------------------------------|
E|---------------------------------------------------------------------------|

e|------------------------------------------14-12------12--------------------|
B|---14-14-14-14-12----12----12-14-----12----------14------14----------------|
G|------------------13----13--------13---------------------------------------|
D|---------------------------------------------------------------------------|
A|---------------------------------------------------------------------------|
E|---------------------------------------------------------------------------|
            
Hard to play? Try these video lessons and learn fast. | Correct




comments powered by Disqus
↑ Back to top | Tablatures and chords are parodies/interpretations of the original songs. You may use it for private study, scholarship, research or language learning purposes only