» » »

Search And Destroy Tabs (ver.3)

Artists:  A B C D E F G H I J K L M N O P Q R S T U V W X Y Z # 

Search And Destroy Tabs (ver.3)

Iggy And The Stooges
Rating:
4/5 (5 votes)

Hard to play? Try these video lessons and learn fast.
                -------------------------------------------------------------------------------
                  SEARCH AND DESTROY - Iggy and the Stooges
-------------------------------------------------------------------------------

Tuning: G1 Electric: Standard
        G2 Electric: Standard

C#    |9 11 11 10 9 9|
F#    |x 9 11 11 11 9|
C#    |9 11 11 10 x x|
B     |7 9 9 8 x x|
A     |5 7 7 6 x x|

G1

||:C#  |   |F#  |  C#:||

-|---------------------------------------------------------|
-|---------------------------------------------------------|
-|-------------------------9-------9-----------------------|
-|-------------------------9-------9-----------------9-----|
-|--11--11--11--11--11--9--7-------7--7--7--7--7-----9-----|
-|---9---9---9---9---9--7-------------5--5--5--5--0--7-----|
     .   .   .   .   .  .             .  .  .  .
  Fig. 1

|C#  |   |F#  |  C#|

-|---------------------------------------------------------|
-|---------------------------------------------------------|
-|-------------------------9-------9-----------------------|
-|-------------------------9-------9-----------------9-----|
-|--11--11--11--11--11--9--7-------7--7--7--7--7-----9-----|
-|---9---9---9---9---9--7-------------5--5--5--5--0--7-----|
     .   .   .   .   .  .             .  .  .  .

|C#  |   |F#  |  C#|

Fig. 1
I'm a street walking cheetah with a heart full of napalm

|C#  |   |F#  |  C#|

Fig. 1
I'm the runaway son of the nuclear A-bomb

|C#  |   |F#  |  C#|

I'm the world's forgotten boy, the one who searches and destroys
-|-----------------------------------------------------------------------------------|
-|-----------------------------------------------------------------------------------|
-|--------------------------------------8----------------------------------------8---|
-|--11----11-----9----9-----7--7-----9--9----11----11-----9----9-----7--7-----9--9---|
-|--11----11-----9----9-----7--7-----9--9----11----11-----9----9-----7--7-----9--9---|
-|---9-----9--0--7----7--0--5--5--0--7--7-----9-----9--0--7----7--0--5--5--0--7--7---|

                            Honey gotta help me please                   Somebody gotta save my
-|-----------------------------------------------------------------------------------------------|
-|-----------------------------------------------------------------------------------------------|
-|--------------------------------------------------2----2--2----2--2--2----2--2--2--------------|
-|--3/4--4--4----4--4--4----4--4--4--4--------------2----2--2----2--2--2----2--2--2-------0--2---|
-|--3/4--4--4----4--4--4----4--4--4--4--------2--4--0----0--0----0--0--0----0--0--0--0--2--------|
-|--1/2--2--2----2--2--2----2--2--2--2--2--4-----------------------------------------------------|
  G1 & G2

    Soul                          Baby detonate for me
-|-----------------------------------------------------------------------------------------------|
-|-----------------------------------------------------------------------------------------------|
-|-------1-------1-----1----1--------------------------------------------------------------------|
-|--2----2-------2-----2----2-----2--------------6----6--6----6--6--6----6--6--6--6--6--6--6--6--|
-|--2----2-------2-----2----2-----2--------2--4--6----6--6----6--6--6----6--6--6--6--6--6--6--6--|
-|--0----0-------0-----0----0--0--0--2--4--------4----4--4----4--4--4----4--4--4--4--4--4--4--4--|

Look out honey, 'cause I'm using technology
Ain't got time to make no apology
Soul radiation in the dead of night
Love in the middle of a fire fight
Honey gotta strike me blind
Somebody gotta save my soul
Baby penerate my mind

|C#   |B             |A                |B   |
         And I'm the world's forgotten boy
|C#   |B                        |A           |B   |
       The one who's searching, searching to destroy
|C#   |B                   |A                |B   |
         And honey I'm the world's forgotten boy
|C#   |B                        |A            |B   |
       The one who's searching, searching to destroy

Look out honey, 'cause I'm using technology
Ain't got time to make no apology
Soul radiation in the dead of night
Love in the middle of a fire fight
Honey gotta strike me blind
Somebody gotta save my soul
Baby penerate my mind

And I'm the world's forgotten boy
The one who's searching, searching to destroy
And honey I'm the world's forgotten boy
The one who's searching, searching to destroy
Forgotten boy, forgotten boy
Forgotten boy said hey forgotten boy

G2 fills

(0:07, 1:47)
-|-----------------------------------------------------------|
-|------5--7--7b8r7-----5-----5/7--5--7b9--5--7--5-----------|
-|--/6---------------6-----6--------------------------6\-----|
-|-----------------------------------------------------------|
-|-----------------------------------------------------------|
-|-----------------------------------------------------------|

(0:12, 1:52)
-|----------------------------------------------12--------12--14b16r14--12--14--12\---------|
-|--12b14--(14)--(14)--(14)r12--9--12--9--12----------14------------------------------------|
-|------------------------------------------------------------------------------------------|
-|------------------------------------------------------------------------------------------|
-|------------------------------------------------------------------------------------------|
-|------------------------------------------------------------------------------------------|

Chorus (repeat simile)
-|---------------------------------------------------------|
-|---------------------------------------------------------|
-|--10--------8--------------------------------------------|
-|--11--------9--------------------------------------------|
-|--11--------9-------7---------------7-------------7------|
-|---9--------7------------9----7--9-----9----7--9-----9---|

| /  slide up
| \  slide down
| .  palm mute
================================================================
            
Hard to play? Try these video lessons and learn fast. | Correct




comments powered by Disqus
↑ Back to top | Tablatures and chords are parodies/interpretations of the original songs. You may use it for private study, scholarship, research or language learning purposes only