» » »

I Wanna Be Your Dog Tabs (ver.1)

Artists:  A B C D E F G H I J K L M N O P Q R S T U V W X Y Z # 

I Wanna Be Your Dog Tabs (ver.1)

Iggy And The Stooges
Rating:
1/5 (1 vote)

Hard to play? Try these video lessons and learn fast.
                E------------------------------------------------------------------------|
B------------------------------------------------------------------------|
G------------------------------------------------------------------------|
D--4-4-4-4-4--3-3-3-3-3--1-1-1-1-1-1-1-----------------------------------|
A--4-4-4-4-4--3-3-3-3-3--1-1-1-1-1-1-1----------------repeat for a while-|
E--4-4-4-4-4--3-3-3-3-3--1-1-1-1-1-1-1-----------------------------------|


E------------------------------------------------------------------------|
B------------------------------------------------------------------------|
G------------------------------------------------------------------------|
D--5-5--3-3-3--1-1--4--4-4-4-4-4-4-4-------------------------------------|
A--5-5--3-3-3--1-1--4--4-4-4-4-4-4-4-------------------------------------|
E--5-5--3-3-3--1-1--4--4-4-4-4-4-4-4-------------------------------------|

then just repeat from the start over and over again

not 100% about the last part but it sounds just about right
            
Hard to play? Try these video lessons and learn fast. | Correct




comments powered by Disqus
↑ Back to top | Tablatures and chords are parodies/interpretations of the original songs. You may use it for private study, scholarship, research or language learning purposes only