» » »

I Got A Right Tabs (ver.1)

Artists:  A B C D E F G H I J K L M N O P Q R S T U V W X Y Z # 

I Got A Right Tabs (ver.1)

Iggy And The Stooges
Rating:
0/5 (0 votes)

Hard to play? Try these video lessons and learn fast.
                These are pretty much just the basic riffs to the song. The rhythms I wrote out aren't 
but I'm sure you all can get them.

Intro: Tremolo pick both chords

E|---3---3------------------------------------------------|
B|---5---3------------------------------------------------|
G|---5---4------------------------------------------------|
D|---5---5------------------------------------------------|
A|---3---5------------------------------------------------|
E|-------3------------------------------------------------|

Main Riff:

E|-------------------------------|
B|-------------------------------|
G|---9--9-9-9--9-9--9-9---5------|
D|---9--9-9-9--9-9--9-9---5--5---|
A|---7--7-7-7--7-7--7-7---3--5---|
E|---------------------------3---|

Verse:

E|--------------------------------------------|
B|--------------------------------------------|
G|---9--9-9-9--9-9--9-9---5------7-----7------|
D|---9--9-9-9--9-9--9-9---5--5---7--7--7--7---|
A|---7--7-7-7--7-7--7-7---3--5---5--7--5--7---|
E|---------------------------3------5-----5---|

Chorus:

E|--------------------------------------------|
B|--------------------------------------------|
G|---9-----9-------7-----7-------5-------7----|
D|---9--9--9--9----7--7--7--7----5---5---7---7|
A|---7--9--7--9----5--7--5--7----3---5---5---7|
E|------7-----7-------5-----5--------3-------5|

E|--------------------------------------------|
B|--------------------------------------------|
G|---9-----9-------7-----7-------5-------5----|
D|---9--9--9--9----7--7--7--7----5---5---5----|
A|---7--9--7--9----5--7--5--7----3---5---3----|
E|------7-----7-------5-----5--------3--------|

Second time through the chorus: Same thing, but ends on a B power chord, right before 
solo:


E|-------|
B|-------|
G|---4---|
D|---4---|
A|---2---|
E|-------|

Solo: Uhh...

The bridge should be easy enough to figure out for yourself, as it’s basically just the 
riff with a lot of palm muting all over, and the song fades out on the chorus riff 
and that’s pretty much it.
            
Hard to play? Try these video lessons and learn fast. | Correct




comments powered by Disqus
↑ Back to top | Tablatures and chords are parodies/interpretations of the original songs. You may use it for private study, scholarship, research or language learning purposes only