» » »

I Fight Dragons, With You Tabs (ver.1)

Artists:  A B C D E F G H I J K L M N O P Q R S T U V W X Y Z # 

With You Tabs (ver.1)

I Fight Dragons Tabs
 Rating:
4.6/5 (9 votes)
With You lessons Tabs too difficult? Try these video lessons and learn fast
                I Fight Dragons – With You

Huge Thanks to Brian and Packy from IFD for giving me advice how to improve the tab.

     C                               Am
e|--------3p0-------------3p0-------------3p0-------------3p0--------|
B|-----1--1-----3-1----1--1-----3-1----1--1-----3-1----1--1-----3-1--|
G|-----0---------------0---------------2---------------2-------------|
D|-------------------------------------------------------------------|
A|---3---3---3---3---3---3---3---3---0---0---0---0---0---0---0---0---|
E|-------------------------------------------------------------------|

    Em              F               C
|-------------------------1--------------3p0-------------3p0--------|
|-----0---3--0--------1---1--1--------1--1-----3-1----1--1-----3-1--|
|-----0---0-----------2------2--------0---------------0-------------|
|-------------------------------------------------------------------|
|-----------------------------------3---3---3---3---3---3---3---3---|
|---0---0---0---0---1---1---1---1-----------------------------------|  x3


    C                               Am
|--------3p0-------------3p0-------------3p0-------------3p0--------|
|-----1--1-----3-1----1--1-----3-1----1--1-----3-1----1--1-----3-1--|
|-----0---------------0---------------2---------------2-------------|
|-------------------------------------------------------------------|
|---3---3---3---3---3---3---3---3---0---0---0---0---0---0---0---0---|
|-------------------------------------------------------------------|

    Em              F               Am              G
|-------------------------1-------------------------3---|
|-----0---3--0--------1---1--1--------1---3---1-----3---|
|-----0---0-----------2------2--------2-------2-----0---|
|---------------------------------------------------0---|
|-----------------------------------0---0---0---0---2---|
|---0---0---0---0---1---1---1---1-------------------3---|

Chorus:
Simply follow these chords (G/B: x20033)

F     G          C     G/B     Am
Maybe we will be everything we say
F     G           C          G/B     Am
Maybe all that we dream will fade to gray
  G     F           G         C
Either way, I will stay with you

    C                               Am
|--------3p0-------------3p0-------------3p0-------------3p0--------|
|-----1--1-----3-1----1--1-----3-1----1--1-----3-1----1--1-----3-1--|
|-----0---------------0---------------2---------------2-------------|
|-------------------------------------------------------------------|
|---3---3---3---3---3---3---3---3---0---0---0---0---0---0---0---0---|
|-------------------------------------------------------------------|

    Em              F               C
|-------------------------1--------------3p0-------------3p0--------|
|-----0---3--0--------1---1--1--------1--1-----3-1----1--1-----3-1--|
|-----0---0-----------2------2--------0---------------0-------------|
|-------------------------------------------------------------------|
|-----------------------------------3---3---3---3---3---3---3---3---|
|---0---0---0---0---1---1---1---1-----------------------------------| x2

    C                               Am
|--------3p0-------------3p0-------------3p0-------------3p0--------|
|-----1--1-----3-1----1--1-----3-1----1--1-----3-1----1--1-----3-1--|
|-----0---------------0---------------2---------------2-------------|
|-------------------------------------------------------------------|
|---3---3---3---3---3---3---3---3---0---0---0---0---0---0---0---0---|
|-------------------------------------------------------------------|


    Em              F               Am              G
|-------------------------1-------------------------3---|
|-----0---3--0--------1---1--1--------1---3---1-----3---|
|-----0---0-----------2------2--------2-------2-----0---|
|---------------------------------------------------0---|
|-----------------------------------0---0---0---0---2---|
|---0---0---0---0---1---1---1---1-------------------3---|


F     G           C    G/B     Am
Maybe we will be everything we say
F     G           C          G/B     Am
Maybe all that we dream will fade to gray
F                  G        C    Am    F   G
Either Way I will stay with yo---------u
     C    Am    F   G
With y----------u
     C    Am    F   G
With yo---------u


    C                               Am    G
|--------3p0-------------3p0--------0-----3--|
|-----1--1-----3-1----1--1-----3-1--1-----3--|
|-----0---------------0-------------2-----0--|
|-----------------------------------2-----0--|
|---3---3---3---3---3---3---3---3---0-----2--|
|-----------------------------------------3--|


F     G          C     G/B     Am
Maybe we will be everything we say
F     G           C          G/B     Am
Maybe all that we dream will fade to gray
  G    F            G         C
Either way, I will stay with you

    C                               Am
|--------3p0-------------3p0-------------3p0-------------3p0--------|
|-----1--1-----3-1----1--1-----3-1----1--1-----3-1----1--1-----3-1--|
|-----0---------------0---------------2---------------2-------------|
|-------------------------------------------------------------------|
|---3---3---3---3---3---3---3---3---0---0---0---0---0---0---0---0---|
|-------------------------------------------------------------------|

    Em              F               C
|-------------------------1--------------3p0-------------3p0--------|
|-----0---3--0--------1---1--1--------1--1-----3-1----1--1-----3-1--|
|-----0---0-----------2------2--------0---------------0-------------|
|-------------------------------------------------------------------|
|-----------------------------------3---3---3---3---3---3---3---3---|
|---0---0---0---0---1---1---1---1-----------------------------------| repeat till end
            
Submit corrections

comments powered by Disqus
↑ Back to top | I Fight Dragons Tabs for With You. Lyrics for acoustic guitar and electric guitar. Tablatures and chords are parodies/interpretations of the original songs. You may use it for private study, scholarship, research or language learning purposes only