» » »

I Fight Dragons, The Faster The Treadmill Bass tabs (ver.1)

Artists:  A B C D E F G H I J K L M N O P Q R S T U V W X Y Z # 

The Faster The Treadmill Bass tabs (ver.1)

I Fight Dragons Tabs
Rating:
5/5 (4 votes)
The Faster The Treadmill lessons Tabs too difficult? Try these video lessons and learn fast
                -------------------------------------------------------------------------------
THE FASTER THE TREADMILL... - I Fight Dragons
-------------------------------------------------------------------------------
Tuning: Standard

     All the same...
G|---------------------------------------------------------------------------|
D|---------------------------------------------------------------------------|
A|-13\8-8-8-8-8-8-8-8-x4-13-13-13-13-13-13-13-13-10-10-10-10-10-10-10-10-----|
E|---------------------------------------------------------------------------|
                                            But no matter...
G|--------------------------------------------------------------10--------------|
D|------------------------------------------10-----10--8---10/12--12-10--8-/11--|
A|-12-12-12-12-12-12-12-12-8-8-8-8-8-8-8-10------10-----------------------------|
E|------------------------------------------------------------------------------|
  Every time... (Chorus)
G|---------------------------------------------------------------------------|
D|---------------------------------------------------------------------------|
A|-8-8-8-8-x4-13-13-13-13-x4-5-5-5-5-x4-8-8-8-8-x2---------------------------|
E|------------------------------------------------10-10-10-10-8-8-8-8--------|
  Time to pick...
G|---------------------------------------------------------------------------|
D|---------------------------------------------------------------------------|
A|-8-8-8-8-x4-13-13-13-13-x4-5-5-5-5-x4-8-8-8-8-x2-------------------8-------|
E|------------------------------------------------10-10-10-10-8-8-8-8--------|
   Sun goes up...
G|------------------------------------------------------------------------------|
D|------------------------7--8--10-8-7---8-7-8--8-7---8---------------/10--8-7--|
A|-8-8-8-8-8-8-8-8-8--10---------------8------------8---8----------8------------|
E|--------------------------------------------------------6--8--10--------------|

G|---------------------------------------|
D|-8-7-----------------------------------|
A|-----8-/10-8-8-8-8-8---8--8-8-8-8-8----|
E|---------------------8--------------8--|

G|-----------------------------------------------------------------------------|
D|-----------------------7--8--10-8-7---8-7-8--8-7---8---------------/10--8-7--|
A|-8--8-8-8-8-8-8-8--10---------------8------------8---8----------8------------|
E|-------------------------------------------------------6--8--10--------------|

G|-----------------------------------------------------------10--------------|
D|-8-7-----------------------------------10-----10--8---10/12--12-10--8-/11--|
A|-----8-/10-8-8-8-8-8---8--8-8-8-8-8-10-----10------------------------------|
E|---------------------8-----------------------------------------------------|
  Repeat Chorus
  Powerpad Breakdown
  Repeat Chorus

   Time to pick...*
G|---------------------------------------------------------------------------|
D|---------------------------------------------------------------------------|
A|-8--8--8-8-8--8--8-8-/13--13--13--13--13--13--13^15-13\-5--5-5-5-----3-5---|
E|--------8-8-------8-------------13--13------13-------------------3-5-------|

G|---------------------------------------------------------------------------|
D|---------------------------------------------------------------------------|
A|5-5-5----5-8--8-8-8-8-8-8-----------------------8--------------------------|
E|------5-8-----------------10-10-10-10-8-8-8-8-8----------------------------|

*Just to clarify, the different line I do in the last chorus as
shown above is not how I recorded it.
Its the way I play it live and adds a little more flavor.
In the recording it just repeats the same way as the previous choruses.

| /  slide up
| \  slide down
| h  hammer-on
| p  pull-off
| ~  vibrato
| +  harmonic
| x  Mute note
            

comments powered by Disqus
↑ Back to top | I Fight Dragons Bass for The Faster The Treadmill. Lyrics for acoustic guitar and electric guitar. Tablatures and chords are parodies/interpretations of the original songs. You may use it for private study, scholarship, research or language learning purposes only