» » »

Money Tabs (ver.1)

Artists:  A B C D E F G H I J K L M N O P Q R S T U V W X Y Z # 

Money Tabs (ver.1)

I Fight Dragons
Rating:
4/5 (1 vote)

Tabs too difficult? Try these video lessons and learn fast.
                Intro(starts at 0:16 and ends when verse begins)
E|-------------------------------------------------------------------|
B|-------------------------------------------------------------------|
G|-------------------------------------------------------------------|
D|-------------------------------------------------------------3-----|
A|-0-0-0-0-0-0-7-7-8-8-8-8-8-8-7-7-5-5-5-5-5-5-5-5-7-7-7-7-7-5-------|
D|-------------------------------------------------------------------|



Chorus(x2)
E|--------------------------------------------------------------------|
B|---------------------------------------------------------------3----|
G|---------------------------------------------------------------3----|
D|-0-0-0-0-0-0-7-7-8-8-8-8-8-8-7-7-5-5-5-5-5-5-5-5-7-7-7-7-7-5-7-3----|
A|-0-0-0-0-0-0-7-7-8-8-8-8-8-8-7-7-5-5-5-5-5-5-5-5-7-7-7-7-7-5-7------|
D|-0-0-0-0-0-0-7-7-8-8-8-8-8-8-7-7-5-5-5-5-5-5-5-5-7-7-7-7-7-5-7------|

Well there's no guitar played during the verses or the breakdown so just play the 
choruses. Also this is my first tab posteg...hope it helped.
            
Tabs too difficult? Try these video lessons and learn fast.




comments powered by Disqus
↑ Back to top | Tablatures and chords are parodies/interpretations of the original songs. You may use it for private study, scholarship, research or language learning purposes only