» » »

I Fight Dragons, Give It Up Tabs (ver.1)

Artists:  A B C D E F G H I J K L M N O P Q R S T U V W X Y Z # 

Give It Up Tabs (ver.1)

I Fight Dragons Tabs
Rating:
5/5 (2 votes)
Give It Up lessons Tabs too difficult? Try these video lessons and learn fast
                I Fight Dragons
Welcome To The Breakdown EP
Atlantic/Photo Finish 2010


Intro/Pre-Verse Riff
e|-------------------------------|
B|------------------6------------|
G|---8-7----7-5-------7----------|
D|-------------------------10-8--|
A|-------6------5--8-----8-------|
E|-6-----------------------------|


Verse
Guitar 1:
e|-----------------------------------------------------------------|
B|-----------------------------------------------------------------|
G|-----------------------------------------------------------------|
D|-8-8-8-8-8-8-8-8-8-8-8-8-8-8-8-8-7-7-7-7-7-7-7-7-7-7-7-7-7-7-7-7-|
A|-----------------------------------------------------------------|
E|-----------------------------------------------------------------|

e|-----------------------------------------------------------------|
B|-----------------------------------------------------------------|
G|-----------------------------------------------------------------|
D|-5-5-5-5-5-5-5-5-5-5-5-5-5-5-5-5-8-8-8-8-8-8-8-8-7-7-7-7-7-7-7-7-|
A|-----------------------------------------------------------------|
E|-----------------------------------------------------------------|

Guitar 2:
e|-----------------------------------------------------------------|
B|-----------------------------------------------------------------|
G|-----------------------------------------------------------------|
D|-8-8-8-8-8-8-8-8-8-8-8-8-8-8-8-8---------------------------------|
A|---------------------------------8-8-8-8-8-8-8-8-8-8-8-8-8-8-8-8-|
E|-----------------------------------------------------------------|

e|-----------------------------------------------------------------|
B|-----------------------------------------------------------------|
G|-----------------------------------------------------------------|
D|---------------------------------8-8-8-8-8-8-8-8-----------------|
A|-6-6-6-6-6-6-6-6-6-6-6-6-6-6-6-6-----------------8-8-8-8-8-8-8-8-|
E|-----------------------------------------------------------------|

Pre-Chorus

e|---------------------------------------------------------------|
B|-------------------------------------------------6-------------|
G|-3-3-3-3-3-3-3-3-3-3-3-3-3-3-3-3-5-5-5-5-5-5-5-5-5-------------|
D|-5-5-5-5-5-5-5-5-5-5-5-5-5-5-5-5-7-7-7-7-7-7-7-7-7-------------|
A|---------------------------------------------------------------|
E|---------------------------------------------------------------|


Chorus Riffs (2x):
e|------------------------------------------------1--------------|
B|-----3-4-----3-----1------------3-4-----3-----1---1------------|
G|---3-----3-----3-----2---2----3-----3-----3---------2----------|
D|-5---------5-----3-----3----5---------5-----3------------------|
A|---------------------------------------------------------------|
E|---------------------------------------------------------------|

End of Chorus (crescendo):
e|---------------------------------------------------------------|
B|---------------------------------------------10-10-10-10-10----|
G|-3-3-3-3-3-3-3-3-5-5-5-5-7-7-7-7-10-10-10-10-10-10-10-10-10----|
D|-5-5-5-5-5-5-5-5-7-7-7-7-8-8-8-8-10-10-10-10-10-10-10-10-10----|
A|---------------------------------------------------------------|
E|---------------------------------------------------------------|

Bridge:
e|-----------------------------------------------------------------|
B|-----------------------------------------------------------------|
G|-7-7-7-7-7-7-7-7-12-12-12-12-10-10-10-10-3-3-3-3-3-3-3-3-5-5-5-5-|
D|-----------------------------------------------------------------|
A|-5-5-5-5-5-5-5-5-10-10-10-10--8-8--8--8--1-1-1-1-1-1-1-1-3-3-3-3-|
E|-----------------------------------------------------------------|

e|---------------------------------------------------------------|
B|---------------------------------------------------------------|
G|-5-5-5-5-7-7-7-7-7-7-7-7-12-12-12-12-15-15-15-15-10-10-10-10---|
D|---------------------------------------------------------------|
A|-3-3-3-3-5-5-5-5-5-5-5-5-10-10-10-10-13-13-13-13-8--8--8--8----|
E|---------------------------------------------------------------|

e|----------------------------------------------------------------|
B|----------------------------------------------------------------|
G|-10-10-10-10-10-10-10-10-7-7-7-7-7-7-7-7-12-12-12-12-10-10-10-10|
D|----------------------------------------------------------------|
A|-8-8-8-8-8-8-8-8-8-8-8-8-5-5-5-5-5-5-5-5-10-10-10-10-8-8-8-8----|
E|----------------------------------------------------------------|

                                  [let ring..........]
e|---------------------------------------------------------------|
B|-----------------------------------6----6----6---6--6----6-----|
G|-3-3-3-3-3-3-3-3-5-5-5-5-5-5-5-5-8---8----8-------8---8--------|
D|---------------------------------8-----8----8---8---8---8------|
A|-1-1-1-1-1-1-1-1-3-3-3-3-3-3-3-3-6-----------------------------|
E|---------------------------------------------------------------|



e|------------------------8--------------------------------------|
B|----8-------8-----------8--------------------------------------|
G|-10---10------10----10--10-------------------------------------|
D|-10------10------10-----10-------------------------------------|
A|-8----------------------8--------------------------------------|
E|---------------------------------------------------------------|
            

comments powered by Disqus
↑ Back to top | I Fight Dragons Tabs for Give It Up. Lyrics for acoustic guitar and electric guitar. Tablatures and chords are parodies/interpretations of the original songs. You may use it for private study, scholarship, research or language learning purposes only