>
 >
Dont You 2

Dont You 2 Guitar Tabs

I Fight Dragons - Dont You 2 chords, tabs, tablatures, lyrics

Guitar lessons | Add/correct | Request | Top 50 tabs Artists:  A B C D E F G H I J K L M N O P Q R S T U V W X Y Z 0-9

Dont You 2 Guitar Tabs – I Fight Dragons

CD, Sheet music, Poster

Do you like Dont You 2? Share with your friends now
ChordsTabsTabs v2Ukulele
*-important update-*
Packy (IFDs guitar-player) submitted his version of this solo, i recommend you 
check out his version (there should only be one more beside my tab, so it wont be 
hard to find :P )


This is the solo from Don't You by I Fight Dragons
It surely isnt 100% correct, so feel free to post any suggestions 
how I can improve it in the comments. 
This tab is from the song as it was first released on IFDs mailing list,
there is a new version with a slightly different solo (I'll take a look at
that and update the tab)

         
e|---------7h8h10-10---------7h8h10-10/12\10-----------7h8h10--12-14---|
B|---8h10--------------8h10----------------------8h10------------------|
G|---------------------------------------------------------------------|
D|---------------------------------------------------------------------|
A|---------------------------------------------------------------------|
E|---------------------------------------------------------------------|
 
|-12-14-12-----15--15--1410-12-10-7--------------------------------|
|---------------------------------------10h12--12-10---------------|
|----------------------------------------------------12-11-9-11-9-7-|
|-------------------------------------------------------------------|
|-------------------------------------------------------------------|
|-------------------------------------------------------------------|

|------------------------------------|
|---5--5h7-5h7h87h8h10-7h8h10-12----|
|-7----------------------------------|
|------------------------------------|
|------------------------------------|
|------------------------------------|

|---------------------------12--15-17-12-15----|
|-12-13p12p10--13-15-13-15---------------------|
|----------------------------------------------|
|----------------------------------------------|
|----------------------------------------------|
|----------------------------------------------|

|---17p15p1217p15h17p15-17p15p12-19p17h19p17-19p17p15-19p17h19p17--|
|--------------------------------------------------------------------|
|--------------------------------------------------------------------|
|--------------------------------------------------------------------|
|--------------------------------------------------------------------|
|---*FAST*-----------------------------------------------------------|

|---17p15p1217p15h17p15-17p15p12-19p17h19p17-19p17p15-19p17h19p15--|
|--------------------------------------------------------------------|
|--------------------------------------------------------------------|
|--------------------------------------------------------------------|
|--------------------------------------------------------------------|
|---*FAST*-----------------------------------------------------------|





Comments


Popular I Fight Dragons tabs & chords
Heads Up Hearts Down Bass Tabs
Kaboom Bass Tabs
No Kontrol Bass Tabs
Dont You Chords
No One Likes Superman Anymore Chords
The Geeks Will Inherit The Earth Chords
With You Tabs
Before I Wake Ukulele
I Will Wait For You If You Do For Me Ukulele
Just Decide Ukulele


Song lyrics



↑ Back to top | Tablatures and chords are parodies/interpretations of the original songs. You may use it for private study, scholarship, research or language learning purposes only
© 2014 AZChords.com Contact us | Privacy policy | DMCA | Add/correct tabs | Request tabs | Top 50 tabs