» » »

Disaster Hearts Tabs (ver.1)

Artists:  A B C D E F G H I J K L M N O P Q R S T U V W X Y Z # 

Disaster Hearts Tabs (ver.1)

I Fight Dragons
Rating:
0/5 (0 votes)

Hard to play? Try these video lessons and learn fast.
                I do not own this song or any of I fight Dragons' songs

Note: Sorry if this is bad. This is my first tab.

(Piano led part tab)
Capo 5

e|--------3-----------------3----------------3-------------3------------------|
B|-----3-----3----------3-------3--------3-----3-------3------3---------------|
G|-0---------------5-----------------4--------------2-------------------------|
D|----------------------------------------------------------------------------|
A|----------------------------------------------------------------------------|
E|----------------------------------------------------------------------------|

This pretty much goes on the entire song until the quiet part between the verse and 
chorus which is just this

e|-------3-------|
B|---3-------3---|
G|---------------|

(Chords)

Lyrics taken from IFD Disaster Hearts Official Video

No capo

Am        F        C           G
Comeback, rebound; simpler said than found
Am        F        C       G
Night by night and tear by tear
Am       F        C      G
Somehow, someway, we all get to someday
Am        F      C       G       F (Hold)
Mile by mile and fear by fear

Chorus:
Am     F        C       G
Disaster has a way of remaking our hearts
Am     F           C           G
Long after all the thunder and scars
Am     F           C           G        F (Hold)
Days pass and bit by bit we begin to restart
                    Am F C G (x2)
Our Disaster Hearts

Stronger, wiser; you'll be fine they tell you
Life will heal and love will bind
Weaker, slower; keep in mind it's over
Take a breath and take your time

Chorus

F
And we will be the last ones
F
To finally see when we're done

Chorus
            
Hard to play? Try these video lessons and learn fast. | Correct




comments powered by Disqus
↑ Back to top | Tablatures and chords are parodies/interpretations of the original songs. You may use it for private study, scholarship, research or language learning purposes only