» » »

Idoli, Malena Tabs (ver.1)

Artists:  A B C D E F G H I J K L M N O P Q R S T U V W X Y Z # 

Malena Tabs (ver.1)

Idoli Tabs
 Rating:
4/5 (4 votes)
Malena lessons Tabs too difficult? Try these video lessons and learn fast
                
   C                          Em7/B
--------------0-----------|--------------0-----------|
-----------1-----1--------|-----------3-----3--------|
--------0-----------0-----|--------0-----------0-----|
-----2-----------------2--|-----0-----------------0--|
--3-----------------------|--2-----------------------|
--------------------------|--------------------------|

  Am                            G                           
---------------------------|-----------------3--------|
-----------0h1p0-----------|--------------0-----0-----|
--------2---------2--------|-----------0-----------0--|
-----2---------------2-----|--------0-----------------|
--0---------------------0--|-----2--------------------|
---------------------------|--3-----------------------|

--------------0-----------|--------------0-----------|
-----------1-----1--------|-----------3-----3--------|
--------0-----------0-----|--------0-----------0-----|
-----2-----------------2--|-----0-----------------0--|
--3-----------------------|--2-----------------------|
--------------------------|--------------------------|

---------------------------|----------- 3-------------|
-----------0h1p0-----------|----------- 0-------------|
--------2---------2--------|----------- 0-------------|
-----2---------------2-----|--------0-----------------|
--0---------------------0--|-----2--------------------|
---------------------------|--3-----------------------|


C     Em7/B      Am       G
jedina malena volim te sakam te
C     Em7/B      Am       G
jedina malena zelim da ...
C     Em7/B      Am       G
jedina malena volim te sakam te
C     Em7/B      Am       G
jedina malena zelim da fukam te
C     Em7/B      Am       G
jedina malena volim te sakam te
C     Em7/B      Am       G
jedina zelim da fukam te do zorata

C       Em7/B	    Am
bez tebe ne mogu da spavam
C       Em7/B	    Am
bez tebe vise ja ne ucim k'o pre
C       Em7/B	    Am
i samo mogu jos da lutam
C       Em7/B	    Am
i tako probam da zaboravim sve

Em7/B:x20030

Napomena:Ovo je verzija pesma koju Vlada Divljan izvodi sa 
Old stars bendom na unplugged koncertu u Novosadskom Studiju M
            
Submit corrections

comments powered by Disqus
↑ Back to top | Idoli Tabs for Malena. Lyrics for acoustic guitar and electric guitar. Tablatures and chords are parodies/interpretations of the original songs. You may use it for private study, scholarship, research or language learning purposes only