» » »

White Wedding Bass tabs (ver.1)

Artists:  A B C D E F G H I J K L M N O P Q R S T U V W X Y Z # 

White Wedding Bass tabs (ver.1)

Idol Billy
Rating:
0/5 (0 votes)

Hard to play? Try these video lessons and learn fast.
                Original tab By: Johari Taylor
Corrections by Shane Scott
 
Song in normal tuning
 
I have included the whole song with timing.
 
Although the original tab had all the right notes it didn't
fit with the cd when played.  I have provided the tab as played on
the best of Billy Idol.
 
This is a great song......
  
Intro.
|----------------|     |----------------|----------------|
|--------4-4-----|     |----------------|----------------|
|----5-7-----7-5-| x6  |----------------|5-5-5-5-5-5-5-5-| x1
|7-7-------------|     |0-0-0-0-0-0-0-0-|----------------|
   
|----------------|     |----------------|----------------|
|--------4-4-----|     |----------------|----------------|
|----5-7-----7-5-| x2  |5-5-5-5-5-5-5-5-|7-7-7-7-7-7-7-7-| x1
|7-7-------------|     |----------------|----------------|
 
|----------------|                          
|----------------|    
|----------------| x4 
|7-7-7-7-7-7-7-7-|
 
Verse.
|----------------|----------------|----------------|----------------|                
|----------------|----------------|----------------|----------------|
|----------------|----------------|----------------|----------------| x2
|7-7-7-7-7-7-7-7-|7-7-7-7-7-7-7-7-|5-5-5-5-5-5-5-5-|0-0-0-0-0-0-0-0-|
 
|----------------|----------------|----------------|----------------|                
|----------------|----------------|----------------|----------------|
|----------------|----------------|----------------|----------------|
|7-7-7-7-7-7-7-7-|7-7-7-7-7-7-7-7-|5-5-5-5-5-5-5-5-|5-5-5-5-5-5-5-5-|
 
|----------------|----------------|        
|----------------|----------------|
|----------------|----------------| x1
|7-7-7-7-7-7-7-7-|7-7-7-7-7-7-7-7-|
 
Chorus.
|----------------|----------------|----------------|
|----------------|----------------|----------------|
|----------------|----------------|----------------|
|5-5-5-5-5-5-5-5-|0-0-0-0-0-0-0-0-|7-7-7-7-7-7-7-7-|
  
|----------------|----------------|----------------|
|----------------|----------------|----------------|
|----------------|----------------|5-5-5-5-5-5-5-5-|
|7-7-7-7-7-7-7-7-|0-0-0-0-0-0-0-0-|----------------|
 
|----------------|----------------|----------------|----------------|
|----------------|----------------|----------------|----------------|
|----------------|----------------|----------------|5---------------| x1
|7-7-7-7-7-7-7-7-|7-7-7-7-7-7-7-7-|0-0-0-0-0-0-0-0-|----------------|
 
|----------------|                          
|----------------|    
|----------------| x2 
|7-7-7-7-7-7-7-7-|
  
Verse.
|----------------|----------------|----------------|----------------|                
|----------------|----------------|----------------|----------------|
|----------------|----------------|----------------|----------------| x2
|7-7-7-7-7-7-7-7-|7-7-7-7-7-7-7-7-|5-5-5-5-5-5-5-5-|0-0-0-0-0-0-0-0-|
 
|----------------|----------------|----------------|----------------|                
|----------------|----------------|----------------|----------------|
|----------------|----------------|----------------|----------------|
|7-7-7-7-7-7-7-7-|7-7-7-7-7-7-7-7-|5-5-5-5-5-5-5-5-|5-5-5-5-5-5-5-5-|
 
|----------------|----------------|        
|----------------|----------------|
|----------------|----------------| x1
|7-7-7-7-7-7-7-7-|7-7-7-7-7-7-7-7-|
 
Chorus.
|----------------|----------------|----------------|
|----------------|----------------|----------------|
|----------------|----------------|----------------|
|5-5-5-5-5-5-5-5-|0-0-0-0-0-0-0-0-|7-7-7-7-7-7-7-7-|
  
|----------------|----------------|----------------|
|----------------|----------------|----------------|
|----------------|----------------|5-5-5-5-5-5-5-5-|
|7-7-7-7-7-7-7-7-|0-0-0-0-0-0-0-0-|----------------|
 
|----------------|----------------|----------------|----------------|
|----------------|----------------|----------------|----------------|
|----------------|----------------|----------------|5---------------| x1
|7-7-7-7-7-7-7-7-|7-7-7-7-7-7-7-7-|0-0-0-0-0-0-0-0-|----------------|
 
Solo.
|----------------|                          
|----------------|    
|----------------| x4 
|7-7-7-7-7-7-7-7-|    
 
|----------------|      |----------------|----------------|
|--------4-4-----|      |----------------|----------------|
|----5-7-----7-5-| x2   |----------------|5-5-5-5-5-5-5-5-| x1
|7-7-------------|      |0-0-0-0-0-0-0-0-|----------------|
                                             
|----------------|      |----------------|----------------|
|--------4-4-----|      |----------------|----------------|
|----5-7-----7-5-| x2   |5-5-5-5-5-5-5-5-|7-7-7-7-7-7-7-7-| x1
|7-7-------------|      |----------------|----------------|
                                             
|----------------|----------------|----------------|----------------|
|----------------|----------------|----------------|----------------|
|----------------|----------------|----------------|----------------|
|7-7-7-7-7-7-7-7-|7-7-7-7-7-7-7-7-|0-0-0-0-0-0-0-0-|0-0-0-0-0-0-0-0-|
 
|----------------|----------------|----------------|----------------|
|----------------|----------------|----------------|----------------|
|----------------|----------------|5-5-5-5-5-5-5-5-|7-7-7-7-7-7-7-7-| x1
|7-7-7-7-7-7-7-7-|7-7-7-7-7-7-7-7-|----------------|----------------|               
 
Other Bit.
|----------------|----------------|----------------|----------------|                                      
|----------------|----------------|----------------|----------------|                
|----------------|----------------|----------------|----------------| x1                
|7-7-7-7-7-7-7-7-|7-7-7-7-7-7-7-7-|5-5-5-5-5-5-5-5-|0-0-0-0-0-0-0-0-|               
 
|----------------|                          
|----------------|    
|----------------| x16                   
|7-7-7-7-7-7-7-7-|                                 
 
|----------------|----------------|----------------|----------------|                                      
|----------------|----------------|----------------|----------------|                
|----------------|----------------|----------------|----------------|                
|0-0-0-0-0-0-0-0-|5-5-5-5-5-5-5-5-|7-7-7-7-7-7-7-7-|7-7-7-7-7-7-7-7-|  
 

|----------------|----------------|----------------|----------------|
|----------------|----------------|----------------|----------------|
|5-5-5-5-5-5-5-5-|7-7-7-7-7-7-7-7-|----------------|----------------| x1
|----------------|----------------|7-7-7-7-7-7-7-7-|7-7-7-7-7-7-7-7-|

 

|----------------|----------------|----------------|----------------|                                      
|----------------|----------------|----------------|----------------|                
|----------------|5-5-5-5-5-5-5-5-|----------------|----------------| x4
|0-0-0-0-0-0-0-0-|----------------|7-7-7-7-7-7-7-7-|7-7-7-7-7-7-7-7-| 
Fade out......
            
Hard to play? Try these video lessons and learn fast. | Correct




comments powered by Disqus
↑ Back to top | Tablatures and chords are parodies/interpretations of the original songs. You may use it for private study, scholarship, research or language learning purposes only