» » »

Idlewild, You Held The World In Your Arms Tonight Bass tabs (ver.1)

Artists:  A B C D E F G H I J K L M N O P Q R S T U V W X Y Z # 

You Held The World In Your Arms Tonight Bass tabs (ver.1)

Idlewild Tabs
 Rating:
4/5 (4 votes)
You Held The World In Your Arms Tonight lessons Tabs too difficult? Try these video lessons and learn fast
                Tuning: Standard

Intro X2
G|---------------------------------------------------------------------------|
D|------------------1-1-1-1-1-1-1-1------------------------------------------|
A|-3-3-3-3-3-3-3-3-------------------1-1-1-1-1-1-1-1-------------------------|
E|----------------------------------------------------4-4-4-4-4-4-4-4--------|

Verse X4
G|---------------------------------------------------------------------------|
D|------------------1-1-1-1-1-1----------------------------------------------|
A|-3-3-3-3-3-3-3-3---------------3-3-3-3-3-3---------------------------------|
E|---------------------------------------------------------------------------|

PreChorus X4
G|---------------------------------------------------------------------------|
D|-6-6-6-6-6-6-6-6-----------------------------------------------------------|
A|------------------3-3-3-3-3-3-3-3------------------------------------------|
E|---------------------------------------------------------------------------|

Chorus X2
G|---------------------------------------------------------------------------|
D|------------------1-1-1-1-1-1-1-1------------------------------------------|
A|-3-3-3-3-3-3-3-3-------------------1-1-1-1-1-1-1-1-------------------------|
E|----------------------------------------------------4-4-4-4-4-4-4-4--------|

Verse X4
G|---------------------------------------------------------------------------|
D|------------------1-1-1-1-1-1----------------------------------------------|
A|-3-3-3-3-3-3-3-3---------------3-3-3-3-3-3---------------------------------|
E|---------------------------------------------------------------------------|

PreChorus X4
G|---------------------------------------------------------------------------|
D|-6-6-6-6-6-6-6-6-----------------------------------------------------------|
A|------------------3-3-3-3-3-3-3-3------------------------------------------|
E|---------------------------------------------------------------------------|

Chorus X4
G|---------------------------------------------------------------------------|
D|------------------1-1-1-1-1-1-1-1------------------------------------------|
A|-3-3-3-3-3-3-3-3-------------------1-1-1-1-1-1-1-1-------------------------|
E|----------------------------------------------------4-4-4-4-4-4-4-4--------|

PreChorus X4
G|---------------------------------------------------------------------------|
D|-6-6-6-6-6-6-6-6-----------------------------------------------------------|
A|------------------3-3-3-3-3-3-3-3------------------------------------------|
E|---------------------------------------------------------------------------|

Chorus X4
G|---------------------------------------------------------------------------|
D|------------------1-1-1-1-1-1-1-1------------------------------------------|
A|-3-3-3-3-3-3-3-3-------------------1-1-1-1-1-1-1-1-------------------------|
E|----------------------------------------------------4-4-4-4-4-4-4-4--------|


| /  slide up
| \  slide down
| h  hammer-on
| p  pull-off
| ~  vibrato
| +  harmonic
| x  Mute note
            
Submit corrections

comments powered by Disqus
↑ Back to top | Idlewild Bass for You Held The World In Your Arms Tonight. Lyrics for acoustic guitar and electric guitar. Tablatures and chords are parodies/interpretations of the original songs. You may use it for private study, scholarship, research or language learning purposes only