» » »

Idlewild, You Held The World Tabs (ver.3)

Artists:  A B C D E F G H I J K L M N O P Q R S T U V W X Y Z # 

You Held The World Tabs (ver.3)

Idlewild Tabs
 Rating:
4/5 (4 votes)
You Held The World lessons Tabs too difficult? Try these video lessons and learn fast
1
                Idlewild - You held the world in your arms


Standard Tuning (EBGDAE)

Intro/Chorus - Guitar 1
e:-------------------------------
b:-------------------------------
g:6--6-8-8-9-8---8-8-9-8---8-6--4 x2
d:-------------9---------9-------
a:-------------------------------
e:-------------------------------

Intro/Chorus - Guitar 2
e:-----------------------
b:-----------------------
g:6-----9---------------- x2
d:6-x7--9-x7--9 x7--7--x7
a:4-----7-----9-----7----
e:------------7-----5----

Verse - Guitar 1 Only
e:----------------
b:----------------
g:6--------------- x6
d:6-x7--7-x4--9-x4
a:4-----7-----9---
e:------5-----7---

Bridge - Guitar 1 Only
e:5-4-0-5-4-0-5-4-0-5-4-0-5-4
b:---------------------------
g:--------------------------- x2 I think (not sure)
d:---------------------------
a:---------------------------
e:---------------------------

Chorus

Verse

Bridge

Chorus

Solo - Guitar 1
e:---------------------------------
b:---------------------------------
g:6-9-8-6-4-13-13-13-11-11-13-6-6-4
d:---------------------------------
a:---------------------------------
e:---------------------------------

Bridge

Chorus

End
            
Submit corrections

comments powered by Disqus
↑ Back to top | Idlewild Tabs for You Held The World. Lyrics for acoustic guitar and electric guitar. 1 Tablatures and chords are parodies/interpretations of the original songs. You may use it for private study, scholarship, research or language learning purposes only