>
 >
Work We Never Do

Work We Never Do Guitar Tabs

Idlewild - Work We Never Do chords, tabs, tablatures, lyrics

Guitar lessons | Add/correct | Request | Top 50 tabs Artists:  A B C D E F G H I J K L M N O P Q R S T U V W X Y Z 0-9

Work We Never Do Guitar Tabs – Idlewild

CD, Sheet music, Poster

Do you like Work We Never Do? Share with your friends now
Tabs
Standard tuning
chords used

	E A D G B e
D#      x 6 8 8 8 x
C5      x 3 5 5 x x
A#5     6 8 8 x x x
G#5     4 6 6 x x x


Intro/verses

Guitar 1

e|---------------------------------------|
B|*-----------------8--8--8--8--8--8--8-*|
G|--8h10p8------8---8--8--8--8--8--8--8--|
D|----------10------8--8--8--8--8--8--8--|
A|-*---------------10-10-10-10-10-10-10-*|
E|---------------------------------------|



Guitar 2 with some variations
e|------------------------------------------------------------(with variation2)---|
B|*------------------------------------------------------------11-(11)-11-11-11--*|
G|-10/12\10-(10)-10-8----------------------10/12\10-(10)-10-8---------------------|
D|---------------------8-(8)-8-8/10\8-(8)-----------------------------------------|
A|*--------------------(with variation 1 )---------------------------------------*|
E|--------------------------------------------------------------------------------|

verse variations

e|---No. 1-------------|----------------------|
B|---------------------|-11-(11)-11-11b13-11--|
G|-8-(8)-8-8/10\8-(8)--|----------------------|
D|-8-(8)-8-8/10\8-(8)--|---No. 2--------------|
A|---------------------|----------------------|
E|---------------------|----------------------|


Pre - Chorus

Guitar 1

|A#5 |G#5 |D#  |A#5 |

Guitar 2; listening for timing

e|-------------------------------------------------------------------------------------------------------|
B|-8--11--8-(8)-8-9-8-9-8-(8)--9-9-11-11--9-(9)-9-11-9-11-9-(9)--8\6\4-(4)-4-4-4--6/8-6(6)--6-8-6-8-6-4--|
G|-------------------------------------------------------------------------------------------------------|
D|-------------------------------------------------------------------------------------------------------|
A|-------------------------------------------------------------------------------------------------------|
E|-------------------------------------------------------------------------------------------------------|

Chorus

Guitar 1

|D# |D# |C5 |A#5 |

Guitar 2

e|-/13-13-13-13-11-11-11-11-11-11-11-11-11-11-11-13-13-11-11\6-(6)---------6--------|
B|-----------------------------------------------------------6-(6)-6-8-6-8----6-----|
G|----------------------------------------------------------------------------------|
D|----------------------------------------------------------------------------------|
A|----------------------------------------------------------------------------------|
E|----------------------------------------------------------------------------------|

e|-/13-13-13-13-11-11-11-11-11-11-11-11-11-11-11-13-13-11-11/15-15-15-15-15-15-15-15--15-16-15-16-15-13--|
B|-------------------------------------------------------------------------------------------------------|
G|-------------------------------------------------------------------------------------------------------|
D|-------------------------------------------------------------------------------------------------------|
A|-------------------------------------------------------------------------------------------------------|
E|-------------------------------------------------------------------------------------------------------|

e|-/13-13-13-13-11-11-11-11-11-11-11-11-11-11-11-13-13-11-11\6-(6)---------6--------|
B|-----------------------------------------------------------6-(6)-6-8-6-8----6-----|
G|----------------------------------------------------------------------------------|
D|----------------------------------------------------------------------------------|
A|----------------------------------------------------------------------------------|
E|----------------------------------------------------------------------------------|


e|-/13-13-13-13-11-11-11-11-11-11-11-11-11-11-11-13-13-11-11/15-15-15-15-15-15-15-15-15-15-15-15-15-15-15|
B|-------------------------------------------------------------------------------------------------------|
G|-------------------------------------------------------------------------------------------------------|
D|-------------------------------------------------------------------------------------------------------|
A|-------------------------------------------------------------------------------------------------------|
E|-------------------------------------------------------------------------------------------------------|

Post Chrous Break


e|-----------------------|
B|-----------------------|
G|-10/12-10-8-10/12-10-8-|	??
D|-----------------------|
A|-----------------------|

Solo 1; heavy distortion throughout


  w/vibrato------------->									  w/vibrato->
e|------------------------------------6---------------------------------------------------6------------------------------|
B|-8-(8)---11-(11)--8-(8)--6-8-6-8b10---8-6-4-(4)-4-4-4-4-4-4-4---4--4-4-6-4-6-4--6/8-8-9---8-6-8----8--6--4-------------|
G|--------------------------------------------------------------5--------------------------------------------------------|
D|-----------------------------------------------------------------------------------------------------------------------|
A|-----------------------------------------------------------------------------------------------------------------------|
E|------------------------------------------------------------------------------------------------------------0--3--0--3-|


w/vibrato------------->									tremolo--------------------
e|-------------------------------6--6-6-6-6-6-6--6--6-6-6--8-6----6---6--6-6-6-6-6-6-------------------------------|
B|-8-(8)---11-(11)--8-(8)--6-8-6-8--6-6-6-6-6-6--8--6-6-6------8--6h8-6--6-6-8-6-8-6---66666666/8888888/999999999/-|
G|-----------------------------------------------------------------------------------------------------------------|
D|-----------------------------------------------------------------------------------------------------------------|
A|-----------------------------------------------------------------------------------------------------------------|
E|-----------------------------------------------------------------------------------------------------------------|

  -------------->
e|-----------------------|
B|-111111111111----------|
G|-----------------------|	
D|-----------------------|
A|-----------------------|
E|-----------------------|


Outro solo; listen to song to get timing for the double-stops and turnarounds


e|-6--6--6--6-6-6-6-6--6---6-6--8-6---6----6---6-6--6--6-6-6-6--6---6-6--8-6---6----6--6--6-6-6-6-6-6----|
B|-8--6--8--6-8-6-8-6--6h8-6-8------8---8--6h8-6-8--9--9-9-8-6--6h8-6-8------8---8-----6--8-6-8-6-8-6----|
G|-------------------------------------------------------------------------------------------------------|
D|-------------------------------------------------------------------------------------------------------|
A|-------------------------------------------------------------------------------------------------------|
E|-------------------------------------------------------------------------------------------------------|

e|-6---6-6--6--6-6-6-6--6----6--6--6-6-6-6-6--8-6---6------6--6-6-6-6--6-----|
B|-6h8-6-8--9--9-9-8-6--6h8--6--8--6-8-6-8-6------8---6-8--9--9-9-8-6--6h8---|
G|---------------------------------------------------------------------------|
D|---------------------------------------------------------------------------|
A|---------------------------------------------------------------------------|
E|---------------------------------------------------------------------------|


Song order:

verse
pre-chorus
chorus
post chorus break
verse
pre-chorus
chorus
solo1
chorus
outro solo





Comments


Popular Idlewild tabs & chords
American English 1 Bass Tabs
Mince Showercap Part One Bass Tabs
Rusty 3 Bass Tabs
Safe And Sound Bass Tabs
Satan Polaroid Bass Tabs
The Bronze Medal 1 Bass Tabs
You Held The World In Your Arms 1 Chords
A Modern Way Of Letting Go 2 Tabs
Finished It Remains Tabs
I Never Wanted Tabs


Song lyrics



↑ Back to top | Tablatures and chords are parodies/interpretations of the original songs. You may use it for private study, scholarship, research or language learning purposes only
© 2014 AZChords.com Contact us | Privacy policy | DMCA | Add/correct tabs | Request tabs | Top 50 tabs