» » »

Idlewild, What Am I Going To Do Now Tabs (ver.1)

Artists:  A B C D E F G H I J K L M N O P Q R S T U V W X Y Z # 

What Am I Going To Do Now Tabs (ver.1)

Idlewild Tabs
Rating:
0/5 (0 votes)
What Am I Going To Do Now lessons Tabs too difficult? Try these video lessons and learn fast
                
DETUNE GUITAR 1 SEMITONE TO Eb
    
             Eb G# C# F# Bb Eb

---------------------------------------------------------
D  - x6888x
C  - x4666x
B  - x3555x
A# - x2444x

INTRO AND VERSE: 

[D, C, D, C, D, C - clean] [C, B, A# - distorted]
  
 
CHORUS: ("I won't go anywhere...")
2 PARTS, PART 1:

B--X----x----x--x-----X----x----x--x---x-x-11-x-x-11---
G--9-s-10-s--9--8-----9-s-10-s--9--8---x-x-11-x-x-11---
D--X----x----x--x-----X----x----x--x---x-x-11-x-x-11---X2
A--7-s--9-s--7--6-----7-s--9-s--7--6---x-x--9-x-x--9---
E--X----x----x--x-----X----x----x--x---x-x--x-x-x--x---
                                 [Mute strings in similar way to Self Healer']

Note: muted section is played for longer than I have tabbed - listen 
to see.
PART 2: (after "Somewhere isn't anywhere..")


B--x----x----x---x---x---x--------------------------------
G-14-s-13---14--16--14--13-------13-----------------------
D--x----x----x---x---x---x--X2----x----------------X2-----
A-12-s-11---12--14--12--11-------11-----------------------
E--x----x----x---x---x---x--------x-----------------------
                              Trem. pick


Repeat verse and Chorus


SOLO:
The solo is actually two guitars mixed together. However, here 
is a way you can play it with one guitar: (Play times 2) sliding
up on the last note.

e--------9-10--------9-10---12-10-10-10--12-10-10-10--21-10-10-10--12-10-10-10----
B-10--12------10--12--------------------------------------------------------------
G---------------------------------------------------------------------------------

    
Finish with the verse chords but finishing on an A (x1333x)
            

comments powered by Disqus
↑ Back to top | Idlewild Tabs for What Am I Going To Do Now. Lyrics for acoustic guitar and electric guitar. Tablatures and chords are parodies/interpretations of the original songs. You may use it for private study, scholarship, research or language learning purposes only