» » »

Idlewild, These Are Just Years Tabs (ver.1)

Artists:  A B C D E F G H I J K L M N O P Q R S T U V W X Y Z # 

These Are Just Years Tabs (ver.1)

Idlewild Tabs
Rating:
0/5 (0 votes)
These Are Just Years lessons Tabs too difficult? Try these video lessons and learn fast
                Standard Tuning

Chords used
	
	 E A D  G B e
F#5      2 4 4  x x x
A#5      x 1 3  3 x x
C#5      x 4 6  6 x x
D#5      x 6 8  8 x x 
F#5type2 x 911 11 x x


INTRO: Piano

VERSE 1

Guitar 1 (Clean)

e|----------------------------|
B|*--------------------------*|
G|----------3--------3--------|
D|--/3---3------3-------6-5---|
A|*---1-----------4----------*|
E|----------------------------|

Guitar 2 (Distorted)

e|--------------------------------|
B|*------------------------------*|
G|--------------3--------------8--|
D|----3--3h4p3----3-----6----8----|
A|*------------------4----/6-----*|
E|--6-----------------------------|


BRIDGE


Guitar 1
e|-----------------------------------------------------------|
B|*---------------------------------------------------------*|
G|-8b(10)--8-6----------6b(7)(6)------6---6---------8---8----|
D|-------------8---4~------------4h6----6---6---6h8---8---8--|
A|*---------------------------------------------------------*|
E|-----------------------------------------------------------|

CHORUS

Guitar 1 

|A#5  |C#5  |D#5  |F#5 |

Guitar 2

e|-----------------------------------------------------------------------4--------|
B|-6-6-(6)-6-7-6-7-(6)--6-6-(6)-6-7-6-7-(6)--6-6-(6)-6-7-6-7-(6)-6-6-6------7--6--|
G|--------------------------------------------------------------------------------|
D|--------------------------------------------------------------------------------|
A|--------------------------------------------------------------------------------|
E|--------------------------------------------------------------------------------|

e|-4-------------|
B|---7--6--4--6~-|
G|---------------|
D|---------------|
A|---------------|
E|---------------|


ALTERNATIVE


e|---------------------------------------------------------------------------4--------|
B|-6-6-(6)-6-7-6-7--6-4--6-6-(6)-6-7-6-7--6-4--6-6-(6)-6-7-6-7--6-4--6-6-6------7--6--|
G|------------------------------------------------------------------------------------|
D|------------------------------------------------------------------------------------|
A|------------------------------------------------------------------------------------|
E|------------------------------------------------------------------------------------|

e|-4-------------|
B|---7--6--4--6~-|
G|---------------|
D|---------------|
A|---------------|
E|---------------|


VERSE 2

Both guitars with lots of echo, chorus, phaser and other fxs


VERSE END

Both Guitars 

B|-6-6-6-6-6-6-6-6-6-6-6-6| Repeat as necessary.


POST CHORUS/OUTRO

Guitar 1
As first chorus, but changing F#5 postion from low to high, and then back to low

|A#5  |C#5  |D#5  |F#5 |
|A#5  |C#5  |D#5  |F#5type2 |
|A#5  |C#5  |D#5  |F#5 |


Guitar 2
 
Continues to play original chorus figure.

Guitars 3,4...
There's quite a lot going on, but these appear to be the main figures that stand out, or that i could
work out.


                      "four walls at..."    "home is the most overused..."
e|-------------------|--4/6-6-------------|----------------4/6-6-|
B|*-----------------*|*------------------*|*--------------------*|
G|-3--3--5--3--5--6--|--------6-6-5-5\3-3-|--3--3--5--3--5-------|
D|-------------------|--------------------|----------------------|
A|*-----------------*|*------------------*|*--------------------*|
E|-------------------|--------------------|----------------------|



e|---------------------------|-------------11-11---------|
B|*-11-11-13-13-14-14-13-13-*|-11-11-13-13-------14-14---|
G|---------------------------|---------------------------|
D|---------------------------|---------------------------|
A|---------------------------|---------------------------|
E|---------------------------|---------------------------|


Finishes on

e|-----------------|
B|-7-7-6-6-4-4-6~--|
G|-----------------|
D|-----------------|
A|-----------------|
E|-----------------|
            

comments powered by Disqus
↑ Back to top | Idlewild Tabs for These Are Just Years. Lyrics for acoustic guitar and electric guitar. Tablatures and chords are parodies/interpretations of the original songs. You may use it for private study, scholarship, research or language learning purposes only