» » »

Idlewild, Bronze Medal Bass tabs (ver.1)

Artists:  A B C D E F G H I J K L M N O P Q R S T U V W X Y Z # 

Bronze Medal Bass tabs (ver.1)

Idlewild Tabs
Rating:
0/5 (0 votes)
Hard to play? Try these video lessons and learn fast.
                (1)

The original tab was right in parts but the E string is down tuned to Eb and 
there were
a few other errors.

Verse
G--------------------------------
D--------------------------------
A--1--1-1--4--4-4----------------
Eb-----------------5--5-5--3--3-3

Chorus
G--------------------------------
D--------------------------------
A--4--4-4--1--1-1----------------
Eb-----------------0--0-0--3--3-3

Bridge
G---------------------------------
D---------------------------------
A---------------------------------
Eb--0--0-0--0--0-0--3--3-3--3--3-3

Outro
G---------------------------------
D---------------------------------
A---1--1-1----------1--1-1--------
Eb----------3--3-3----------3--3-3
            

comments powered by Disqus
↑ Back to top | Idlewild Bass for Bronze Medal. Lyrics for acoustic guitar and electric guitar. Tablatures and chords are parodies/interpretations of the original songs. You may use it for private study, scholarship, research or language learning purposes only