» » »

Idlewild, Rusty Bass tabs (ver.1)

Artists:  A B C D E F G H I J K L M N O P Q R S T U V W X Y Z # 

Rusty Bass tabs (ver.1)

Idlewild Tabs
 Rating:
4/5 (4 votes)
Rusty lessons Tabs too difficult? Try these video lessons and learn fast
1
                you look worn out
6-6--6-6--6-6--6-6-6-6--------------------------------------------------------------- 
------------------------4-4--4-4--4-4--4-4-4-4-7-7--7-7--7-7--7-7-7-7-2-2-2-2-1-1-1-1

CROFT!!(this bit is a little off)
g--------------------------------------------------------------
d-*------------9-9-9-9-6-6-7-7-8-8-9-9*------------------------ 
a-*7-7-7-7-7-7------------------------*-11-11-11-11-13-13-13-13 
e-------------------------------------------------------------- 

what are you looking for? 
g------------------------------------------------------------
d------------------------------------------------------------ 
a-6-6-6-6-6-6-6-6-6-6-6-6------------------------------------ 
e-------------------------7-7-7-7-5-4-4-4-4-5-7-7-7-7-9-9-9-9 

bridge 
g-------------------- 
d-------------------- 
a-4-6-4-6-4-6-4-6-6-6 
e-------------------- 

comments, stuff, idlewild/similar requests, mail me.
            
Submit corrections

comments powered by Disqus
↑ Back to top | Idlewild Bass for Rusty. Lyrics for acoustic guitar and electric guitar. 1 Tablatures and chords are parodies/interpretations of the original songs. You may use it for private study, scholarship, research or language learning purposes only