» » »

Idlewild, No Generation Tabs (ver.1)

Artists:  A B C D E F G H I J K L M N O P Q R S T U V W X Y Z # 

No Generation Tabs (ver.1)

Idlewild Tabs
Rating:
0/5 (0 votes)
No Generation lessons Tabs too difficult? Try these video lessons and learn fast
                Standard Tuning

Chords Used

	E A D G B e
F#5     2 4 4 x x x
G#5     4 6 6 x x x
B5      7 9 9 x x x
A#5     6 8 8 x x x
B5!     x 2 4 4 x x
C#5     x 4 6 6 x x
D#5     x 6 8 8 x x


Intro

pick scr*pes with echo, delay and anything else for good measure

VERSES

Guitar 1

e|-------------------------------------------------------------------------------------|
B|*-----------------------------------------------------------------------------------*|
G|-------------------------------------------------------------------------------------|
D|-13-13-13-13-13-13-13-13-13-9-9-9-9-9-9-9-9-9-9-6-6-6-6-6-6-6-6-6-9-9-9-9-9-9/11\9---|
A|*-x--x--x--x--x--x--x--x--x-x-x-x-x-x-x-x-x-x-x-x-x-x-x-x-x-x-x-x-x-x-x-x-x-x--x-x--*|
E|-11-11-11-11-11-11-11-11-11-7-7-7-7-7-7-7-7-7-7-4-4-4-4-4-4-4-4-4-7-7-7-7-7-7/-9\7---|


Guitar 2

e|------------------------------------------------------------------------------------|
B|*-11----11----11----11----11---11-----11---9----9----9----9----9----9----9----9-----|
G|-----11----11----11----11----11----11---11---11---11---11---11---11---11---11---11--|
D|------------------------------------------------------------------------------------|
A|*-----------------------------------------------------------------------------------|
E|------------------------------------------------------------------------------------|

e|--------------------------------------------------------------|
B|-11----11----11----11----11---11-----11----9----9------------*|
G|----11----11----11----11----11----11---11---11---11--8--10----|
D|--------------------------------------------------------------|
A|-------------------------------------------------------------*|
E|--------------------------------------------------------------|


Pre-Chrous

Guitar 1

|G#5 |D#5 | x2
|G#5 |D#5 |F#5 |F#5 |


Guitar 2

e|--------------------------------------------------------------------------------|
B|--------------------------------------------------------------------------------|
G|-8-8-10-11--13-11-(11)-10-10/11\10-10-8-(8)---8-8-10-11--13/15-11/13\11-10--8---|
D|-x-x--x--x---x--x--(x)--x--x--x--x--x-x-(x)---x-x--x--x---x--x--x--x--x--x--x---|
A|-6-6--8--9--11--9--(9)--8--8/-9\-8--8-6-(6)---6-6--8--9--11/13--9/11\-9--8--6---|
E|--------------------------------------------------------------------------------|

e|--------------------------------------------|--------------------|
B|--------------------------------------------|*------------------*|
G|-8-8-10-11--13-11-(11)-10-10/11\10-10-8-(8)-|--8-8/11\8-8-8-8-8/-|
D|-x-x--x--x---x--x--(x)--x--x--x--x--x-x-(x)-|--x-x--x-x-x-x-x-x--|
A|-6-6--8--9--11--9--(9)--8--8/-9\-8--8-6-(6)-|*-6-6/-9\6-6-6-6-6/*|
E|--------------------------------------------|REPEAT UNTIL CHORUS-|


CHORUS

Guitar 1

|D#5  |B5!  |F#5  |C#5  |

Guitar 2; not really correct but...

e|------------------------|
B|*----------------------*|
G|-8VV//16VV-11VV--6-6-4--|
D|------------------------|
A|*----------------------*|
E|------------------------|


POST CHORUS

Guitars 1&2 chords may be played longer than indicated below.  Listen to recording for changes.

|D#5  |D#5  |D#5  |D#5 |D#5 |G#5 |G#5 |G#5  |G#5  |B5  |B5  |A#5 |A#5 |


PRE-VERSE 2

Both guitars:

lots of fxs and harmonics


OUTRO
Guitar 1 ??

|D#5  |D#5  |D#5  |D#5 |D#5 |
|G#5  |G#5  |G#5  |G#5 |G#  |

D#5  |D#5  |D#5  |D#5 |D#5 |G#5 |G#5 |G#5  |G#5  |B5  |B5  |A#5 |A#5 |

Guitar 2; with ad libs until finish

e|--------------------------------------------|
B|*------------------------------------------*|
G|--8-8--8-8--8/15--15--13--13-11-11-10-10----|
D|--x-x--x-x--x--x---x---x---x--x--x--x--x----|
A|*-6-6--6-6--6/13--13--11--11--9--9--8--8---*|
E|--------------------------------------------|


Song order

intro
verse
pre-chorus
chorus
pre-verse2
verse
pre-chorus
chorus
outro
            
Submit corrections

comments powered by Disqus
↑ Back to top | Idlewild Tabs for No Generation. Lyrics for acoustic guitar and electric guitar. Tablatures and chords are parodies/interpretations of the original songs. You may use it for private study, scholarship, research or language learning purposes only