» » »

Idlewild, Mince Showercap Tabs (ver.1)

Artists:  A B C D E F G H I J K L M N O P Q R S T U V W X Y Z # 

Mince Showercap Tabs (ver.1)

Idlewild Tabs
Rating:
0/5 (0 votes)
Mince Showercap lessons Tabs too difficult? Try these video lessons and learn fast
                (Part)

tuning 1/2 step down i've put the tunings as ebgdae cos I don't know
what the strings are tuned to

Intro Chord

G# (twice)

rest of song
G# C  F#

after the second chorus you have this part

     G#
e------------0----
b------------0-----
g------------0-----
d----3---3----------
a----3---3----------
E----5---5----------

this is the tab for the little riff in the song
			   *3  then
e-----------------------------|----------------------
b-----------------------------|---17-16--------------
g---14-14-14-14-14-14-12------|----------------------
d-----------------------------|----------------------
a-----------------------------|----------------------
E-----------------------------|----------------------

then at the end there's this riff 
e----------------
b-----------------
g-12-15-14-14-12--14--17-17--16-16-14-14--19-18-17-12-14--
d-----------------
a-----------------
E-----------------


e----------------
b-----------------
g--12-15-14-14-12--14--17-17--16-16-14-14----14
d-----------------
a-----------------
E-----------------

its not 100 per cent correct but I'm sure you get the picture
            

comments powered by Disqus
↑ Back to top | Idlewild Tabs for Mince Showercap. Lyrics for acoustic guitar and electric guitar. Tablatures and chords are parodies/interpretations of the original songs. You may use it for private study, scholarship, research or language learning purposes only