» » »

Idlewild, Live In A Hiding Place Tabs (ver.2)

Artists:  A B C D E F G H I J K L M N O P Q R S T U V W X Y Z # 

Live In A Hiding Place Tabs (ver.2)

Idlewild Tabs
 Rating:
3.4/5 (10 votes)
Live In A Hiding Place lessons Tabs too difficult? Try these video lessons and learn fast
1
                Idlewild - Live in a Hiding Place

This is a great song, it didnt take me very long to work this out, so it might not b atall
perfect so, dont laugh if its wrong.

Mattius (thts not my real name, its a nickname, so dont think im Swedish or anything)

Guitar 1 plays this throughout the whole song
---------------------------------------------------------------------
---------------------------------------------------------------------
------------------4---------3----------------------------------------
-----4----------4---------3---------6p4---6p4---6--------------------
---4----------2---------1--------------------------------------------
-2--------------------------------4------4----4----------------------

Guitar 2 - comes in at around 3 minutes and plays this over guitar 1
---------------------------------------------------------------------
----2--0-------------------------------------------------------------
-----------3---1-----------------------------------------------------
------------------5----7---3---0-------------------------------------
---------------------------------------------------------------------
---------------------------------------------------------------------

Lyrics

There are times that I should try, 
To be so much more alive 
But if time was right then I would be with you again 
Or do you worry that I try to avoid the point 
And then deny 
The time I spent deciding it was you again 

It's when I live in a hiding place 
It's the only way I feel safe 
When I'm safe in a hiding place 
(That's not hidden now) 
I'm safe in a hiding place 
It's the only way I feel safe 
When I'm safe in a hiding place 

And you're full of facts 
But not things that could add up to words 
Think about meaning more as an after word 
As in afterward 

I return but don't remain, 
I'm impatient for a reason 
To complain about winter, 
Making me see through again 
Or is it your damaged reply, 
That makes me realize that 
The more I try 
The less that plans will help me comprehend again 

So I live in a hiding place 
It's the only way I feel safe 
When I'm safe in a hiding place 
(That's not hidden now) 
I'm safe in a hiding place 
It's the only way I feel safe 
When I live in a hiding place 

And you're full of facts 
But not things that could add up to words 
You think about meaning more as an after word 
And you're full of facts 
But not things that could add up to words 
You think about meaning more as an after word 
As in afterward
            
Submit corrections

comments powered by Disqus
↑ Back to top | Idlewild Tabs for Live In A Hiding Place. Lyrics for acoustic guitar and electric guitar. 1 Tablatures and chords are parodies/interpretations of the original songs. You may use it for private study, scholarship, research or language learning purposes only