>
 >
Let Me Sleep (Next To The Mirror)

Let Me Sleep (Next To The Mirror) Guitar Tabs

Idlewild - Let Me Sleep (Next To The Mirror) chords, tabs, tablatures, lyrics

Guitar lessons | Add/correct | Request | Top 50 tabs Artists:  A B C D E F G H I J K L M N O P Q R S T U V W X Y Z 0-9

Let Me Sleep (Next To The Mirror) Guitar Tabs – Idlewild

CD, Sheet music, Poster

Do you like Let Me Sleep (Next To The Mirror)? Share with your friends now
ChordsTabs
iDLEWiLD

Guitar tuned down half a step (Eb, Ab, Db, Gb, Bb, Eb)

Intro Riff
Eb-7-0-7-0-7-0-7-0-9-0-9-0-12-0-12-0--|
Bb------------------------------------|
Gb------------------------------------| Play x 2 (the riff continues throughout the verse)

Verse Riff
I woke up first this morning...
Eb-0--0--0-0-0-0--0---4--4--4-4-4-4--4-5--5--5-5-5-5--5--5-5-5-5--5--5-5-5-5-5/7-7-7--|
Bb-0--0--0-0-0-0--0---5--5--5-5-5-5--5-5--5--5-5-5-5--5--5-5-5-5--5--5-5-5-5-5/7-7-7--|
Gb-1--1--1-1-1-1--1---6--6--6-6-6-6--6-6--6--6-6-6-6--6--6-6-6-6--6--6-6-6-6-6/8-8-8--|
Db-2--2--2-2-2-2--2---6--6--6-6-6-6--6-7--7--7-7-7-7--7--7-7-7-7--7--7-7-7-7-7/9-9-9--|
Ab-2--2--2-2-2-2--2---4--4--4-4-4-4--4-7--7--7-7-7-7--7--7-7-7-7--7--7-7-7-7-7/9-9-9--|
Eb-0--0--0-0-0-0--0--------------------5--5--5-5-5-5--5--5-5-5-5--5--5-5-5-5-5/7-7-7--| Play x 2

Bridge Riff (Guitar 1)
Let me sleep next to the mirror...
Eb--2--2--2-2-2-2-2/4-4-4-4-0--0-x-x--2--2-2-2--|
Bb--2--2--2-2-2-2-2/4-4-4-4-0--0-x-x--4--4-4-4--|
Gb--2--2--2-2-2-2-2/4-4-4-4-1--1-x-x--4--4-4-4--|
Db--4--4--4-4-4-4-4/6-6-6-6-2--2-x-x--4--4-4-4--|
Ab--4--4--4-4-4-4-4/6-6-6-6-2--2-x-x--2--2-2-2--|
Eb--2--2--2-2-2-2-2/4-4-4-4-0--0-x-x------------|Play x 4

Bridge Riff (Guitar 2)
Eb-------------------------------------------------------------------|
Bb-------------------------------------------------------------------|
Gb--11--11--11-11-11-11-11/13-13-13-13-9--9-x-x--4--4-4-4------------|
Db-------------------------------------------------------------------|
Ab--9---9---9--9--9--9---9/11-11-11-11-7--7-x-x--2--2-2-2------------|
Eb-------------------------------------------------------------------| Play x 3
Then Play
Eb-------------------------------------------------------------------|
Bb-------------------------------------------------------------------|
Gb--11--11--14--14--14--13--11-x-x-9--9-x-x--4--4-4-4----------------|
Db-------------------------------------------------------------------|
Ab--9---9---12--12--12--11---9-x-x-7--7-x-x--2--2-2-2----------------|
Eb-------------------------------------------------------------------|

Chorus Riff
(Play chords underneath this lead line)
   Eb                      G                      Cm                  Ab
Eb--12----12----14----12----11----11----11----9----------12-------12---------12-----------|
Bb-----12----12----12----12----12----12----12---12----12-------12---------12--------------|
Gb-------------------------------------------------13-------13---------13-------13-11--9--|
Db----------------------------------------------------------------------------------------|
Ab----------------------------------------------------------------------------------9--7--|
Eb----------------------------------------------------------------------------------------| Play x 4

Break Riff A
Play x 3, then............................... Play this:
Eb-------------------------------------------|---------------------------------------------|
Bb-------------------------------------------|---------------------------------------------|
Gb------9-----9-----------13-------13--------|-----9-----9---------------------------------|
Db----9-----9-----9/---13-------13-------13\-|---9-----9-----9/---13-13----13----13b14r13--|
Ab--7-----7-----7---11-------11-------11-----|-7-----7-----7---11-------11----11-----------|
Eb-------------------------------------------|---------------------------------------------|

Then play Verse Riff x 2
Then play Bridge Riff x 4
Then Play Chorus Riff x 4
Then

Break Riff
Play x 3, then............................... Play this (getting slower):
Eb-------------------------------------------|---------------------------------------------|-------|
Bb-------------------------------------------|---------------------------------------------|-------|
Gb------9-----9-----------13-------13--------|-----9-----9---------------------------------|-------|
Db----9-----9-----9/---13-------13-------13\-|---9-----9-----9/---13-13----13----13h14p13\-|----9--|
Ab--7-----7-----7---11-------11-------11-----|-7-----7-----7---11-------11----11-----------|--7----|
Eb-------------------------------------------|---------------------------------------------|-------|





Comments


Popular Idlewild tabs & chords
A Modern Way Of Letting Go 2 Bass Tabs
Childhoods End Bass Tabs
Roseability Bass Tabs
Trooper Bass Tabs
American English 2 Chords
Make Another World Chords
4 People Do Good Tabs
What Am I Going To Do Now Tabs
You Held The World 1 Tabs
American English Ukulele


Song lyrics



↑ Back to top | Tablatures and chords are parodies/interpretations of the original songs. You may use it for private study, scholarship, research or language learning purposes only
© 2014 AZChords.com Contact us | Privacy policy | DMCA | Add/correct tabs | Request tabs | Top 50 tabs