>
 >
In Competition For The Worst Time

In Competition For The Worst Time Guitar Tabs

Idlewild - In Competition For The Worst Time chords, tabs, tablatures, lyrics

Guitar lessons | Add/correct | Request | Top 50 tabs Artists:  A B C D E F G H I J K L M N O P Q R S T U V W X Y Z 0-9

In Competition For The Worst Time Guitar Tabs – Idlewild

CD, Sheet music, Poster

Do you like In Competition For The Worst Time? Share with your friends now
Tabs
Guitarists: Rod Jones, Allen Stewart
Written by Idlewild

Notes:
This is the tab for Rod's part, it's the lead guitar and is the more fun part to play.
intro and verses are 100% accurate. However the guitar is hard to hear on the chorus, I'd
it's definitely 95% accurate though, if not more. Solo is pretty much spot on, though I 
guarantee there aren't a couple of wrong notes. Also, there's a pretty big stretch
the chorus, but it is doable.

Symbols:

^ = bend note up
v = bend note down
* = vibrato

Enjoy!


Intro

e |-----------------------------------------------------------------|
B |-7-7-7-7-7-7-7-7-9-9-9-9-9-9-9-9-7-7-7-7-7-7-7-7-9-9-9-9-9-9-----|
G |-8-8-8-8-8-8-8-8-8-8-8-8-8-8-8-8-8-8-8-8-8-8-8-8-8-8-8-8-8-8-----|
D |-9-9-9-9-9-9-9-9-9-9-9-9-9-9-9-9-9-9-9-9-9-9-9-9-9-9-9-9-9-9-----|
A |-----------------------------------------------------------------|
E |-----------------------------------------------------------------|

e |-----------------------------------------------------------------|
B |-7-7-7-7-7-7-7-7-9-9-9-9-9-9-----7-7-7-7-7-7-7-7-9-9-9-9-9-9-9-9-|
G |-8-8-8-8-8-8-8-8-8-8-8-8-8-8-----8-8-8-8-8-8-8-8-8-8-8-8-8-8-8-8-|
D |-9-9-9-9-9-9-9-9-9-9-9-9-9-9-----9-9-9-9-9-9-9-9-9-9-9-9-9-9-9-9-|
A |-----------------------------------------------------------------|
E |-----------------------------------------------------------------|

Verses

e |-----------------------------------------------------------------|
B |-7-7-7-7-7-7-7-7-9-9-9-9-9-9-9-9-7-7-7-7-7-7-7-7-9-9-9-9-9-9-9-9-|
G |-8-8-8-8-8-8-8-8-8-8-8-8-8-8-8-8-8-8-8-8-8-8-8-8-8-8-8-8-8-8-8-8-|
D |-9-9-9-9-9-9-9-9-9-9-9-9-9-9-9-9-9-9-9-9-9-9-9-9-9-9-9-9-9-9-9-9-|
A |-----------------------------------------------------------------|
E |-----------------------------------------------------------------|

e |---------------------------------7-7-7-7-7-7-7-7-9-9-9-9-9-7-7-7-|
B |-7-7-7-7-7-7-7-7-9-9-9-9-9-9-9-9-9-9-9-9-9-9-9-9-9-9-9-9-9-9-9-9-|
G |-8-8-8-8-8-8-8-8-8-8-8-8-8-8-8-8-9-9-9-9-9-9-9-9-9-9-9-9-9-9-9-9-|
D |-9-9-9-9-9-9-9-9-9-9-9-9-9-9-9-9---------------------------------|
A |-----------------------------------------------------------------|
E |-----------------------------------------------------------------|

e |-----------------------------------------------------------------|
B |-7-7-7-7-7-7-7-7-9-9-9-9-9-9-9-9-7-7-7-7-7-7-7-7-9-9-9-9-9-9-9-9-|
G |-8-8-8-8-8-8-8-8-8-8-8-8-8-8-8-8-8-8-8-8-8-8-8-8-8-8-8-8-8-8-8-8-|
D |-9-9-9-9-9-9-9-9-9-9-9-9-9-9-9-9-9-9-9-9-9-9-9-9-9-9-9-9-9-9-9-9-|
A |-----------------------------------------------------------------|
E |-----------------------------------------------------------------|

e |---------------------------------7-7-7-7-7-7-7-7-9-9-9-9-9-7-7-7-|
B |-7-7-7-7-7-7-7-7-9-9-9-9-9-9-9-9-9-9-9-9-9-9-9-9-9-9-9-9-9-9-9-9-|
G |-8-8-8-8-8-8-8-8-8-8-8-8-8-8-8-8-9-9-9-9-9-9-9-9-9-9-9-9-9-9-9-9-|
D |-9-9-9-9-9-9-9-9-9-9-9-9-9-9-9-9---------------------------------|
A |-----------------------------------------------------------------|
E |-----------------------------------------------------------------|

Choruses - play once for first chorus, twice for second one.

e |----------------------------------------------------------|
B |-7-7-7-7---7-7-7-7-7-7-7---9---11---12---12-12-12-12-11---|
G |-8-8-8-8---8-8-8-8-8-8-8---8---8----13---13-13-13-13-13---|
D |-9-9-9-9---9-9-9-8-8-8-8---8---8----14---14-14-14-14-14---|
A |----------------------------------------------------------|
E |----------------------------------------------------------|

e |-------------------------------------------------|
B |-9-9-9-9-9-9-9-9-7-7-7-7---7-7-7-7-7-7-7---7-7-7-|
G |-9-9-9-9-9-9-9-9-8-8-8-8---8-8-8-8-8-8-8---8-8-8-|
D |-9-9-9-9-9-9-9-9-9-9-9-9---9-9-9-8-8-8-8---8-8-8-|
A |-------------------------------------------------|
E |-------------------------------------------------|

e |---------------------------|
B |-9-9-9-7---7-7-7-12-11-9---|
G |-8-8-8-8---8-8-8-----------|
D |-9-9-9-8---8-8-8-----------|
A |---------------------------|
E |---------------------------|

Solo

e |-------------------------------------------|
B |-------------------------------------------|
G |-------------------------------------------|
D |-------13-13^v----13-14^v-13-16^v-14-13----|
A |----14---------14-----------------------14-|
E |-12----------------------------------------|

e |-------------------------------------------|
B |-------------------------------------------|
G |----------------------------------------15-|
D |-------13-13^v----13-14^v-13-16^v-14-16----|
A |----14---------14--------------------------|
E |-12----------------------------------------|

e |---------------------------------------|
B |---------------------------------------|
G |-16-16-16-16-16-16-16-16-18^V-16-15----|
D |-16-16-16-16-16-16-16-16------------16-|
A |---------------------------------------|
E |---------------------------------------|

e |----------------------------------------------------------|
B |-16-17-16-------------------------14----------------------|
G |----------16-16-16-16-16-16-16-16----16-15----15-16-16-16-|
D |-------------------------------------------16-------------|
A |----------------------------------------------------------|
E |----------------------------------------------------------|

e |-----------------------------------------|
B |-----------------------------------------|
G |-----------------------------------------|
D |-------13-13^v----13-14^v-13-16^v-14-13*-|
A |----14---------14------------------------|
E |-12--------------------------------------|

e |-------------------------------------------|
B |-------------------------------------------|
G |----------------------------------------15-|
D |-------13-13^v----13-14^v-13-16^v-14-16----|
A |----14---------14--------------------------|
E |-12----------------------------------------|

e |---------------------------------------|
B |---------------------------------------|
G |-16-16-16-16-16-16-16-16-18^V-16-15----|
D |-16-16-16-16-16-16-16-16------------16-|
A |---------------------------------------|
E |---------------------------------------|

e |----------------------------------------------------------|
B |-16-17-16-------------------------------------------------|
G |----------16-16-16-16-16-16-16-16-15----------------------|
D |-------------------------------------16-14-13----13-14-13-|
A |----------------------------------------------14----------|
E |----------------------------------------------------------|

Outro

e |-------------------------------------------|
B |-------------------------------------------|
G |-------------------------------------------|
D |-14--------14-13------14--------14-13------|
A |------11---------11--------11---------11---|
E |-------------------------------------------|





Comments


Popular Idlewild tabs & chords
1903-70 Bass Tabs
Last Night I Missed All The Fireworks 1 Bass Tabs
A Modern Way Of Letting Go 2 Tabs
American English 1 Tabs
Mistake Pageant Tabs
This Is Worse Tabs
When I Argue I See Shapes Tabs
You Just Have To Be Who You Are Tabs
Theres Glory In Your Story Ukulele
Welcome Home Ukulele


Song lyrics



↑ Back to top | Tablatures and chords are parodies/interpretations of the original songs. You may use it for private study, scholarship, research or language learning purposes only
© 2014 AZChords.com Contact us | Privacy policy | DMCA | Add/correct tabs | Request tabs | Top 50 tabs