» » »

I'm Happy To Be Here Tonight Tabs (ver.1)

Artists:  A B C D E F G H I J K L M N O P Q R S T U V W X Y Z # 

I'm Happy To Be Here Tonight Tabs (ver.1)

Idlewild
Rating:
0/5 (0 votes)

Hard to play? Try these video lessons and learn fast.
                Artist - Idlewild
Song - I'm Happy To Be Here Tonight

I did my best to tab the rythmn but you'd better listen to the CD just to be sure

Intro / Verse

e|--3--3-3--3--3-3-3--3--3-3--3--3--3--|
b|--0--0-0--0--0-0-0--X--X-X--0--0--X--|
g|--0--0-0--0--0-0-0--2--2-2--X--X--2--|
d|--2--2-2--2--2-2-2--0--0-0--0--0--0--|
a|--3--3-3--3--3-3-3-------------------|  X3
e|-------------------------------------|


e|--0--0-0--0--0-0---------------------|
b|--3--3-3--3--3-3---------------------|
g|--0--0-0--0--0-0---------------------|
d|--0--0-0--0--0-0---------------------|
a|--2--2-2--2--2-2---0---0-2--0--------|
e|--3--3-3--3--3-3-3---3--------3------|
                   ..............
                      Bass part


Chorus

It's hard to hear the guitar but I think it goes like this

e|---------------------------------------|
b|--0--0-0--1--1--0-0-1--1-1--3--3-3-3---|
g|--2--2-2--2--2--2-2-0--0-0--0--0-0-0---|
d|--2--2-2--2--2--2-2-2--2-2--0--0-0-0---|
a|--0--0-0--0--0--0-0-3--3-3--2--2-2-2---|  X4
e|----------------------------3--3-3-3---|




Post Chorus "Is it the way that I can...."

e|--0-----------0----------|
b|--1-----------3----------|
g|--0-----------2----------|
d|--2-----------0----------|
a|--3----------------------|
e|-------------------------|


That's it, except for the piano over the top of the 'post chorus' bit.
Feel free tocorrect bits or Email me if you want
            
Hard to play? Try these video lessons and learn fast. | Correct




comments powered by Disqus
↑ Back to top | Tablatures and chords are parodies/interpretations of the original songs. You may use it for private study, scholarship, research or language learning purposes only