» » »

I Am A Message Tabs (ver.1)

Artists:  A B C D E F G H I J K L M N O P Q R S T U V W X Y Z # 

I Am A Message Tabs (ver.1)

Idlewild
Rating:
0/5 (0 votes)

Hard to play? Try these video lessons and learn fast.
                
verse   do this a few times
e-----------------------------------------------------------------------------------------------------------------------
b--------6-----------6-------------6----------6------------7----------7-----------7---------------7------------------
g-----------------------------------------------------------------------------------------------------------------------
d-----6---------6-------------6----------6------------6---------6------------6--------------6------------------------
a-----------------------------------------------------------------------------------------------------------------------
e-----------------------------------------------------------------------------------------------------------------------

next part of the verse goes higher on guitar.       Do this a few times as well
e----------13---------13--------13--------13---------14---------14---------14----------14--------------------------
b-----------------------------------------------------------------------------------------------------------------------
g---13----------13---------13-------13---------13---------13---------13---------13---------------------------------
d-----------------------------------------------------------------------------------------------------------------------
a-----------------------------------------------------------------------------------------------------------------------
e-----------------------------------------------------------------------------------------------------------------------

heavy part.    Use octaves I think.
     c# 				      f#				        c#
e-----------------------------------------------------------------------------------------------------------------------
b-----------------------------------------------------------------------------------------------------------------------
g---6---6--6---6---6--6---6---6---11--11-11--11-11--11--11-11--6----6---6--6--6---6--6-6--------------------
d-----------------------------------------------------------------------------------------------------------------------
a---4---4--4---4---4--4---4---4---9---9---9---9---9---9---9---9---4---4---4--4--4---4--4---4--------------------
e-----------------------------------------------------------------------------------------------------------------------

  d#m7		  c#
e-----------------------------------------------------------------------------------
b-----------------------------------------------------------------------------------
g-8---8---8------6---5--------------------------------------------------------------
d-----------------------------------------------------------------------------------
a-6---6---6------4---3--------------------------------------------------------------
e-----------------------------------------------------------------------------------

c#                    d#m7                  fm7                  f#
I am a message, I am a message, I am a message, I am a I am a
            
Hard to play? Try these video lessons and learn fast. | Correct




comments powered by Disqus
↑ Back to top | Tablatures and chords are parodies/interpretations of the original songs. You may use it for private study, scholarship, research or language learning purposes only