» » »

Everyone Says Youe So Fragile Tabs (ver.1)

Artists:  A B C D E F G H I J K L M N O P Q R S T U V W X Y Z # 

Everyone Says Youe So Fragile Tabs (ver.1)

Idlewild
Rating:
0/5 (0 votes)

Hard to play? Try these video lessons and learn fast.
                
DETUNE GUITAR 1 SEMITONE TO Eb
    
             Eb G# C# F# Bb Eb

---------------------------------------------------------

Chords:
G# - x02220   G#add9 - X02200   F XX3321  
D# - 022100   C# - X577XX       Bb - x244xx

Main Riff
This is used for the introduction as well as the chorus to the song. 

(RIFF 1)
E--0-0-------------0--------------0-0-------------x-x---x--
B--2-2---X--X--X---2---X--X--X----2-2---X--X--X---x-x---x--
G--2-2--11--9--7---2---9--7--6----2-2--11--9--7---4-4---7--
D--2-2---X--X--X---2---X--X--X----2-2---X--X--X---4-4---7--  X2
A--0-0---9--7--5---0---7--5--4----0-0---9--7--5---2-2---5--
E--x-x-------------x--------------x-x-------------x-x---x--


VERSE
The pattern for the verse is a G# subtly changing with a G#add9 then 
moving to an F and then a detuned D#.

So play the G#add9 chord and hammer on and off the b string like so:

E-0-0-0-0-0---0-0-0-0-0---
B-0-0-2-2-0---0-0-2-2-0---
G-2-2-2-2-2---2-2-2-2-2---  X2 (4 BARS) then F - D# (1 BAR EACH)
D-2-2-2-2-2---2-2-2-2-2---
A-0-0-0-0-0---0-0-0-0-0---


SOLO
Played twice during the song over a G# chord after the chorus:

E--------------------------------------
B-18--15ho16-16-16-16-15-15------------
G---------------------------15-15-15-15
            
Hard to play? Try these video lessons and learn fast. | Correct




comments powered by Disqus
↑ Back to top | Tablatures and chords are parodies/interpretations of the original songs. You may use it for private study, scholarship, research or language learning purposes only