» » »

Idlewild, Close The Door Tabs (ver.1)

Artists:  A B C D E F G H I J K L M N O P Q R S T U V W X Y Z # 

Close The Door Tabs (ver.1)

Idlewild Tabs
Rating:
0/5 (0 votes)
Close The Door lessons Tabs too difficult? Try these video lessons and learn fast
                
Intro                          Verse

   Bass          Guitar                                        X2
Db|------------|--------------|-------------------------------
Bb|------------|-4-5-4--4-5-7-|-------------------------------
F#|------------|--------------|-----13-13-11-11-----11-11-9-9-
C#|------------|--------------|-9-9-13-13-11-11-9-9-11-11-9-9-
G#|-----7-7-9-9|--------------|-9-9-11-11--9--9-9-9--9--9-7-7-
Db|-7-7--------|--------------|-7-7-------------7-7-----------

then this bit
                                      X2
Db|-------------------4---4---4---4-
Bb|---4---4---4---4-----------------
F#|-4---4---4---4---4---4---4---4---
C#|---------------------------------
G#|---------------------------------
Db|---------------------------------

Chorus
                 X4
Db|-------------
Bb|-------------
F#|-----8-9-6---
C#|-6-6-8-9-6-6-
G#|-6-6-6-7-4-6-
Db|-4-4-------4-


Db|---------------
Bb|---------------
F#|-----9-9-11-11-
C#|-9-9-9-9-11-11-
G#|-9-9-7-7--9--9-
Db|-7-7-----------
            
Submit corrections

comments powered by Disqus
↑ Back to top | Idlewild Tabs for Close The Door. Lyrics for acoustic guitar and electric guitar. Tablatures and chords are parodies/interpretations of the original songs. You may use it for private study, scholarship, research or language learning purposes only