» » »

Idlewild, Blame It On The Obvious Ways Tabs (ver.1)

Artists:  A B C D E F G H I J K L M N O P Q R S T U V W X Y Z # 

Blame It On The Obvious Ways Tabs (ver.1)

Idlewild Tabs
 Rating:
4/5 (4 votes)
Blame It On The Obvious Ways lessons Tabs too difficult? Try these video lessons and learn fast
1
                Band - Idlewild
Song - Blame it on Obvious Ways
Album - Warnings/Promises
Tuning - Standard

Amazing song, best song off the new cd "Warnings/Promises"
Here Goes...


Intro

e:-------4-2-2-----------------------:
b:-------4-2-2-----5/4---------------:
g:-------4-4-5---------6----4--------:
d:-6/4/6-6-4-4---6------6--4--4---4--:    x 2
a:-6/4/6-6-2-4-4----------2------4-4-:
E:-4/2/4-4---2------------------2----:


Verse Part 1

"All the mistkaes i've made..."

e:---------------------------2-----2---------------------------4-----2-:
b:-----5/4--------5/4--------2-----2-----5/4--------5/4--------4-----2-:
g:---------6----------6--4-4-4-----5--------6----------6-------4-----3-:
d:----------6----------6-4-4-4-4-4-4----------6----------6-6-6-6-4-4-4-:
a:-4-4--------4-4--------2-2-2-4-4-4-4-4--------4-4--------6-6-6-4-4-4-:
E:-----------------------------2-2-2-----------------------4-4-4-2-2-2-:

Verse Part 2

e:-----------------------2---4-2--------------------------4-----2-:
b:-----5/4--------5/4----2---4-2-----5/4-------5/4--------4-----2-:
g:---------6----------6--4-3-4-3---------6---------6------4-----3-:
d:----------6----------6-4-3-6-4----------6---------6-6-6-6-4-4-4-:
a:-4-4--------4-4--------2-1-6-4-4-4--------4-4-------6-6-6-4-4-4-:
E:---------------------------4-2----------------------4-4-4-2-2-2-:


Chorus

"Open up your arms & sing..."

e:-------4-2-2-----------------------:
b:-------4-2-2-----5/4---------------:
g:-------4-4-5---------6----4--------:
d:-6/4/6-6-4-4---6------6--4--4---4--:
a:-6/4/6-6-2-4-4----------2------4-4-:
E:-4/2/4-4---2------------------2----:


Verse 2 same as before


Bridge

e:-------------------------------------0-0-------------0-0-------------:
b:-4-4-4-2-2-2-------4-4-4-2-2-2-------0-0-4-4---------0-0-4-4---------:
g:-6-6-6-4-4-4-3-3-3-6-6-6-4-4-4-3-3-3-1-1-6-6-4-4-3-3-1-1-6-6-4-4-3-3-:
d:-6-6-6-4-4-4-4-4-4-6-6-6-4-4-4-4-4-4-2-2-6-6-6-6-4-4-2-2-6-6-6-6-4-4-:
a:-4-4-4-2-2-2-4-4-4-4-4-4-2-2-2-4-4-4-2-2-4-4-6-6-4-4-2-2-4-4-6-6-4-4-:
E:-------------2-2-2-------------2-2-2-0-0-----4-4-2-2-0-0-----4-4-2-2-:

Back to Chorus Untill finish
            
Submit corrections

comments powered by Disqus
↑ Back to top | Idlewild Tabs for Blame It On The Obvious Ways. Lyrics for acoustic guitar and electric guitar. 1 Tablatures and chords are parodies/interpretations of the original songs. You may use it for private study, scholarship, research or language learning purposes only